Paralamas do Sucesso

Início > Paralamas ... > acordes

Vital e Sua Moto Tablatura Bajo

Paralamas do Sucesso

Dificultad:Ningún gradoNingún grado

KURT CONBAI

tuner correct add songbook print version text version salvar en e-mail
acordesukuleletablaturabaixobateríaarmónicaflautacavacopiano Guitar Pro
acordes

Vital e Sua Moto

Áño: 2000 - Álbum: Arquivo

Tono:  A
	  Vital e sua Moto  
  
   RIFF 1: 
G ---------------------------------------------------------------------------------- 
D --------------------4--4--2--4--4--4--2--4--7\9---------------------4--4--2--4---2 
A --5--5--5--7--7--7--------------------------------5--5--5--7--7--7---------------- 
E ---------------------------------------------------------------------------------- 
                                                                                     
   RIFF 2: 
G ----------------------------------------- 
D ----------------------------------------- 
A --0--0-----0--2--4--4-----0--2-----0--2-- 
E --------2--------------2--------2-------- 
                                            
   RIFF 3: 
G --------------------------------- 
D --------------------------------- 
A --5-----5--7-----7--5-----5--7--- 
E -----5--------7--------5--------- 
 
 
 
 
 
   SEM BAIXO: 
Vital andava a pé e achava que assim estava mal  
De um ônibus pro outro, aquilo para ele era o fim  
 
   RIFF 1: 
Conselho de seu pai:  
- Motocicleta é perigoso, Vital  
É duro te negar, filho, mas isso dói bem mais em mim  
 
   RIFF 2: 
Mas Vital comprou a moto  
E passou a se sentir total 
Vital e sua moto mas que união feliz 
 
   RIFF 1: 
Corria e viajava era sensacional  
A vida em duas rodas era tudo o que ele sempre quis 
 
   RIFF 3: 
Vital passou a se sentir total  
Com seu sonho de metal  
Vital passou a se sentir total  
Com seu sonho  
 
   RIFF 2: 
Os Paralamas do Sucesso iam tentar tocar na capital  
E a caravana do amor  
Então pra lá se encaminhou 
 
   RIFF 1: 
Ele foi com sua moto porque de carro era baixo astral 
Minha prima já está lá e é por isso que eu também vou  
Oh! Oh! Oh! 
	  

No existe una video leccione para esta canción

request
LosAcordes
Buscar
auto avanzar rasgueos aumentar disminuir cambiar color esconder acordes gráficos
losacordes exhibir acordes losacordes youTube video losacordes ocultar tabs losacordes ir hacia arriba losacordes