Paralamas do Sucesso

Início > Paralamas ... > acordes

Ska Tablatura Bajo

Paralamas do Sucesso

Dificultad:PrincipiantePrincipiante

bemn

tuner correct add songbook print version text version salvar en e-mail
acordesukuleletablaturabaixobateríaarmónicaflautacavacopiano Guitar Pro
acordes

Ska

Áño: 2000 - Álbum: Arquivo

Tono:  Am
	  Ska 


A música começa dando uma nota no final do primeiro verso dos metais 

G|-----| 
D|-----| 
A|-----| 
E|--5--| 

Depois segue com esse riff a maior parte do tempo. 
G|----------------------------------| 
D|--------7-------------9-----------| 
A|------7---8-7-5-----9---9-7-5-----| 
E|--5-8-----------8-7-----------8-7-| 

Existem algumas pequenas alterações durante a música, como tocar a mesma nota duas vezes, rapidamente... mas a base é esta. 

No trecho "E aí... tanto faz..." muda para esse riff 

G|-------------------------------------------------------------------------| 
D|-------------------------------------------------------------------------| 
A|--4-4---4--3-3---3--2-2---2-----------4-4---4--3-3---3--2-2---2--7-5-----| 
E|-----------------------------1-1---1---------------------------------8-7-| 

Aí volta para o riff principal... 

A música termina assim: 

G|--------------------------------------------| 
D|--------------------------------------------| 
A|-------5----7--------------5----7-----------| 
E|--5--------------5----5--------------5-5-5--| 
	  

No existe una video leccione para esta canción

request
LosAcordes
Buscar
auto avanzar rasgueos aumentar disminuir cambiar color esconder acordes gráficos
losacordes exhibir acordes losacordes youTube video losacordes ocultar tabs losacordes ir hacia arriba losacordes