Jonas Brothers

Início > Jonas Brot... > acordes

Hollywood Tablatura Bajo

Jonas Brothers

Dificultad:IntermedioIntermedio

terr_schmitz

tuner correct add songbook print version text version salvar en e-mail
acordesukuleletablaturabaixobateríaarmónicaflautacavacopiano Guitar Pro
acordes

Hollywood

	  
Tabbed By : Valerie L 
e-mail:  [email protected] 
Tuning: standard 

Verse 
G|--------------------| 
D|--------------------| 
A|------3-------------| 
E|-03-0---03-01-00----| x2 

pre-Chorus 
G|------------------------------------------------------------------| 
D|------------------------------------------------------------------| 
A|------------------------------------------------------------------| 
E|11111111-33333333-55555555-66666666-11111111-33333333-5555555-6~--| 

Chorus 
G|------------------------------------------------------------------------| 
D|-----------------------------------------------------2h3p2-------2h3p2--| 
A|3333333333333333/8888888888888888--------------------------3------------| 
E|----------------------------------555555-333333-1-1----------1-1--------| 

G|------------------------------------------------------------------| 
D|------------------------------------------------------------------| 
A|3333333333333333/8888888888888888----------3333333----------------| 
E|----------------------------------55555555---------111111-1-11111-| 

Verse x2 
Pre-Chorus x1 
Chorus x1 

Bridge "Game over..." 
G|---------------------------------------|   |-------------------| 
D|--------------------------5~--------5~-|   |-------------------| 
A|5555555--------------------------------|   |5555555------------| 
E|--------5555555555-3-33-3----3-33-3----|x3 |-------55555555-3~-| 

"You can try to break us..." 
G|-------------------------------------------------| 
D|-------------------------------------------------| 
A|3333333333333333/888888888888888-----------------| 
E|---------------------------------55--1-111111111-| 

Outro Chorus 
G|----------------------------------------------------------| 
D|----------------------------------------------------------| 
A|3333333333333333/888888888888888---------3333333----------| 
E|---------------------------------5555555---------1111111--| 

G|----------------| 
D|----------------| 
A|-3--------------| 
E|-------------55-| 

	  

No existe una video leccione para esta canción

request
LosAcordes
Buscar
auto avanzar rasgueos aumentar disminuir cambiar color esconder acordes gráficos
losacordes exhibir acordes losacordes youTube video losacordes ocultar tabs losacordes ir hacia arriba losacordes