Johnny Winter

Início > Johnny Win... > acordes

Highway 61 Revisited Tablatura Bajo

Johnny Winter

Dificultad:Ningún gradoNingún grado

hebealmeida

tuner correct add songbook print version text version salvar en e-mail
acordesukuleletablaturabaixobateríaarmónicaflautacavacopiano Guitar Pro
acordes

Highway 61 Revisited

	  
Intro: 
G|-------------------------------------------------| 
D|-------------------------------------------------| 
A|-5--5--5--5--5--5--5--3---5--5--5--5--5--5--5--3-| 
E|-------------------------------------------------| 

verse 1: 
G|--------------------------------------------------------------| 
D|--------------------------------------------------------------| 
A|-5--5--5--5--5--5--5--3---5--5--5--5--5--5--5--3---5--5--5--5-| 
E|--------------------------------------------------------------| 

G|----------------------------------------------------------------------| 
D|----------------------------------4-5--5--5--5--5--5--5--5------------| 
A|-5--5--5--3---5--5--5--5--5--5--5--------------------------5--5--5--5-| 
E|----------------------------------------------------------------------| 

G|-----------------------------------------------------------------------| 
D|-------------------------------------7--7--7--7--7--7--7--4------------| 
A|-5--5--5--3---5--5--5--5--5--5--5--5------------------------5--5--5--5-| 
E|-----------------------------------------------------------------------| 

G|----------------------------------------------------------------| 
D|--------------------------------------------------------7-7-5-4-| 
A|-5--5--5--3---5--5--5--5--5--5--5--3---5--5--5--5--5--5---------| 
E|----------------------------------------------------------------| 

G|---------------------------------------------------| 
D|------------------7-7-5-4------------------7-7-5-4-| 
A|-5--5--5--5--5--5---------5--5--5--5--5--5---------| 
E|---------------------------------------------------| 

verse 2: 
G|--------------------------------------------------------------| 
D|--------------------------------------------------------------| 
A|-5--5--5--5--5--5--5--3---5--5--5--5--5--5--5--3---5--5--5--5-| 
E|--------------------------------------------------------------| 

G|----------------------------------------------------------------------| 
D|----------------------------------4-5--5--5--5--5--5--5--5------------| 
A|-5--5--5--3---5--5--5--5--5--5--5--------------------------5--5--5--5-| 
E|----------------------------------------------------------------------| 

G|----------------------------------------------------------------------| 
D|------------------------------4-5-7--7--7--7--7--7---7-5-4------------| 
A|-5--5--5--3---5--5--5--5--5-7----------------------7-------5--5--5--5-| 
E|----------------------------------------------------------------------| 

G|--------------------------------------------------------------| 
D|--------------------------------------------------------------| 
A|-5--5--5--3---5--5--5--5--5--5--5--3---5--5--5--5--5--5--5--3-| 
E|--------------------------------------------------------------| 

G|---------------------------------------------------| 
D|---------------------------------------------------| 
A|-5--5--5--5--5--5--5--3-----5--5--5--5--5--5--5--3-| 
E|---------------------------------------------------| 

Interlude: 
G|---------------------------------------------------| 
D|------------------7-7-5-4------------------7-7-5-4-| 
A|-5--5--5--5--5--5---------5--5--5--5--5--5---------| 
E|---------------------------------------------------| 

G|---------------------------------------------------| 
D|---------------------------------------------------| 
A|-5--5--5--5--5--5--5--3-----5--5--5--5--5--5--5--3-| 
E|---------------------------------------------------| 

verse 3: 
G|--------------------------------------------------------------| 
D|--------------------------------------------------------------| 
A|-5--5--5--5--5--5--5--3---5--5--5--5--5--5--5--3---5--5--5--5-| 
E|--------------------------------------------------------------| 

G|----------------------------------------------------------------------| 
D|----------------------------------4-5--5--5--5--5--5--5--5------------| 
A|-5--5--5--3---5--5--5--5--5--5--5--------------------------5--5--5--5-| 
E|----------------------------------------------------------------------| 

G|------------------------------------------------------------------------| 
D|-------------------------------------7--7--7--7--7--7--7-5-4------------| 
A|-5--5--5--3---5--5--5--5--5--5--5--5------------------7------5--5--5--5-| 
E|------------------------------------------------------------------------| 

G|----------------------------------------------------------------| 
D|--------------------------------------------------------7-7-5-4-| 
A|-5--5--5--3---5--5--5--5--5--5--5--3---5--5--5--5--5--5---------| 
E|----------------------------------------------------------------| 

G|---------------------------------------------------| 
D|------------------7-7-5-4------------------7-7-5-4-| 
A|-5--5--5--5--5--5---------5--5--5--5--5--5---------| 
E|---------------------------------------------------| 

AND THAT’S THE BASIC RIFFS AND VERSES.  THE SONG JUST GOES ROUND AND ROUND 
TO FADE/END. (PLENTY SCOPE FOR ONE’S OWN FILLS AND BASS RUNS) 
	  

No existe una video leccione para esta canción

request
LosAcordes
Buscar
auto avanzar rasgueos aumentar disminuir cambiar color esconder acordes gráficos
losacordes exhibir acordes losacordes youTube video losacordes ocultar tabs losacordes ir hacia arriba losacordes