Helloween

Início > Helloween > acordes

Mirror Mirror Tablatura Bajo

Helloween

Dificultad:Ningún gradoNingún grado

eduardo_lyvio

tuner correct add songbook print version text version salvar en e-mail
acordesukuleletablaturabaixobateríaarmónicaflautacavacopiano Guitar Pro
acordes

Mirror Mirror

Áño: 2000 - Álbum: The Dark Ride

	  Standard Tuning: EADG 
 
G---------|---------------------------|| 
D---------|---------------------------|| 
A--8-8----|---------------------------|| 
E-------0-|-0-0-0-0-0-0-0--2-2--111-0-|| 
 INTRO     (this variation x4)                                                 
 
G----------------------------------------------------------------------------| 
D----------------------------------------------------------------------------| 
A----------------------------------------------------------------------------| 
E--------0------------------------------------------3--------0---------------| 
 VERSE 1 "My age you keep..."  "can not be broken..."  "of eternal youth..."   
 
G---------------------------------------------------------------------------|| 
D---------------------------------------------------------------------------|| 
A---------------------------------------------------------------------------|| 
E--0-----------------------3----0-----------3----------------0--------------|| 
   "We share one face together..."  "forever..."  "only you know my truth."    
 
G---------|---------------------|-------|-----|| 
D---------|---------------------|-------|-----|| 
A---------|---------------------|-------|-----|| 
E--1-1-0--|-0-0-0-0-0-0-0--2-2--|-111-0-|-1-1-|| 
 Chorus 1  (this variation x4)  (1,2,3)  (4)                                   
 
G--------------------------|--------------------|| 
D--------------------------|--------------------|| 
A--------------------------|--------------------|| 
E--00-1-0-1-0-1-0-1-0-0000-|-1-0-1-0-1-0-1-0--0-|| 
 POST-Chorus 1                                                                 
 
G------------------------------|----------------------|--------------------|| 
D------------------------------|----------------------|--------------------|| 
A------------------------------|----------------------|--------------------|| 
E---------0-000-0-00000000-0-0-|-3-333-3-33333333-3-3-|-0-000-000000000000-|| 
 VERSE 2 (this variation x2)                                                   
 
G------------------------------|----------------------|--------------------|| 
D------------------------------|----------------------|--------------------|| 
A------------------------------|----------------------|--------------------|| 
E---------0-000-0-00000000-0-0-|-3-333-3-33333333-3-3-|-0-000-000000000000-|| 
 VERSE 3 (this variation x2)                                                   
 
G---------|---------------------|-------|-----|| 
D---------|---------------------|-------|-----|| 
A---------|---------------------|-------|-----|| 
E--1-1-0--|-0-0-0-0-0-0-0--2-2--|-111-0-|-1-1-|| 
 Chorus 2  (this variation x4)  (1,2,3)  (4)                                   
 
G-------------------|------------------|------------------|-----------|| 
D-------------------|------------------|------------------|-----------|| 
A-------------------|------------------|------------------|-----------|| 
E--3---3---333--5-7-|-5---5---555--7-8-|-3---3---333--5-7-|--5--5--5--|| INTERLUDE                                                                     
 
G---------|-----------------------|-------|-----|| 
D---------|-----------------------|-------|-----|| 
A---------|-----------------------|-------|-----|| 
E--1-1-0--|-0-0-0-0-0-0-0-0-0-0-0-|-111-0-|-1-1-|| 
 GTR SOLO  (this variation x4) (1,2,3)  (4)                                    
 
 
 
G--------------------------|---------------------|------------------------| 
D--------------------------|------------------2--|------------------------| 
A--------------------------|---------------------|------------------------| 
E--00-1-0-1-0-1-0-1-0-0000-|-1-0-1-0-1-0-1-0-----|-00-1-0-1-0-1-0-10-0000-| 
 POST-Chorus 2                             "Aah!"                               
 
 
G---------------------------|| 
D------------------33333333-|| 
A---------------------------|| 
E-1-0-1-0-11111111----------|| 
                                                                               
 
G-----|--------------------|-------|-----|| 
D-----|--------------------|-------|-----|| 
A-----|--------------------|-------|-----|| 
E--0--|-0-0-0-0-0-0-0--2-2-|-111-0-|-1-1-|| Repeat all this till fade. 
 Chorus 3(this variation x4)(1,2,3)  (4)      
 
 
 
 
 

	  

No existe una video leccione para esta canción

request
LosAcordes
Buscar
auto avanzar rasgueos aumentar disminuir cambiar color esconder acordes gráficos
losacordes exhibir acordes losacordes youTube video losacordes ocultar tabs losacordes ir hacia arriba losacordes