Gustavo Cerati

Início > Gustavo Ce... > acordes

Naturaleza Muerta Tablatura Bajo

Gustavo Cerati

Dificultad:Ningún gradoNingún grado

paulantunes

tuner correct add songbook print version text version salvar en e-mail
acordesukuleletablaturabaixobateríaarmónicaflautacavacopiano Guitar Pro
acordes

Naturaleza Muerta

	  
Intro 

G|-------------------------------|x3 |-------------------------------|x1 
D|-------------------------------|   |-------------------------------| 
A|-------------------------------|   |----------------3/5-5-5-5-5-5-3|  
E|5-5-5-5-5-5-5-0-1-1-1-1-1-1-1-0|   |2-2-2-2-2-2-2-0----------------| 


verse 1 

G|-------------------------------|x3 |-------------------------------|x1 
D|-------------------------------|   |-------------------------------| 
A|-------------------------------|   |----------------3/5-5-5-5-5-5-3|  
E|5-5-5-5-5-5-5-0-1-1-1-1-1-1-1-0|   |2-2-2-2-2-2-2-0----------------| 


Chorus 1 

G|-------------------------------|x3 |-------------------------------|x1 
D|----------------2-2-0-2-2-0-2-2|   |-------------------------------| 
A|3-3-3-3-3-3-3-3----------------|   |1-1-1-1-1-1-1-1----------------|  
E|-------------------------------|   |----------------3-3-3-3-3-3-3-3| 

verse 2 

G|-------------------------------|x3 |-------------------------------|x1 
D|-------------------------------|   |-------------------------------| 
A|-------------------------------|   |----------------3/5-5-5-5-5-5-3|  
E|5-5-5-5-5-5-5-0-1-1-0-1-1-0-1-1|   |2-2-2-2-2-2-2-0----------------| 

G|-------------------------------|x3 |-------------------------------|x1 
D|-------------------------------|   |-------------------------------| 
A|-------------------------------|   |----------------3/5-5-5-5-5-5-3|  
E|5-5-5-5-5-5-5-0-1-1-0-1-1-0-1-1|   |2-2-2-2-2-2-2-0----------------| 


Chorus 2 

G|-----------------------------0-|x3 |-------------------------------|x1 
D|----------------2-2-0-2-2-0-2-2|   |-------------------------------| 
A|3-3-3-3-3-3-3-3----------------|   |1-1-1-1-1-1-1-1----------------|  
E|-------------------------------|   |----------------3-3-3-3-3-3-3-3| 

G|-----------------------------0-|x3 |-------------------------------|x1 
D|----------------2-2-0-2-2-0-2-2|   |-------------------------------| 
A|3-3-3-3-3-3-3-3----------------|   |1-1-1-1-1-1-1-1----------------|  
E|-------------------------------|   |----------------3-3-3-3-3-3-3-3| 

verse 3 

G|-------------------------------|x1 |-------------------------------|x1 
D|-------------------------------|   |-------------------------------| 
A|-------------------------------|   |---------------1/5-5-5-5-5-5-5-|  
E|5-5-5-5-5-5-5-0-1-1-0-1-1-0-1-1|   |5-5-5-5-5-5-5-0----------------| 


G|-------------------------------|x1 |-------------------------------|x1 
D|-------------------------------|   |-------------------------------| 
A|-------------------------------|   |----------------3/5-5-5-5-5-5-3|  
E|5-5-5-5-5-5-5-0-1-1-0-1-1-0-1-1|   |2-2-2-2-2-2-2-0----------------| 


Bridge 

G|-----------------------|x3 |-------------------|x1 
D|-----------------------|   |-------------------| 
A|--------3--------------|   |--------3/5-5-3-5~-|  
E|5-5-3-5---5-3-1-1-0-1~-|   |2-2-1-2------------| 


Chorus 1 

G|-----------------------------0-|x3 |-------------------------------|x2 
D|----------------2-2-0-2-2-0-2-2|   |-------------------------------| 
A|3-3-3-3-3-3-3-3----------------|   |1-1-1-1-1-1-1-1----------------|  
E|-------------------------------|   |----------------3-3-3-3-3-3-3-3| 


G|----------------|-------------------------------|x1 
D|----------------|-------------------------------|    
A|1-1-1-1-1-1-1-1-|5-5-5-5-5-5-5-5-5-5-5-5-5-5-5-5|     
E|----------------|-------------------------------|    


Outro 

G|-------------------------------|x3 |-------------------------------|x1 
D|-------------------------------|   |-------------------------------| 
A|-------------------------------|   |----------------3/5-5-5-5-5-5-3|  
E|5-5-5-5-5-5-5-0-1-1-1-1-1-1-1-0|   |2-2-2-2-2-2-2-0----------------| 


************************************ 
| /   Slide up 
| ~   Vibrato 
************************************ 
	  

No existe una video leccione para esta canción

request
LosAcordes
Buscar
auto avanzar rasgueos aumentar disminuir cambiar color esconder acordes gráficos
losacordes exhibir acordes losacordes youTube video losacordes ocultar tabs losacordes ir hacia arriba losacordes