Guano Apes

Início > Guano Apes > acordes

Big In Japan Tablatura Bajo

Guano Apes

Dificultad:AdelantadoAdelantado

tuner correct add songbook print version text version salvar en e-mail
acordesukuleletablaturabaixobateríaarmónicaflautacavacopiano Guitar Pro
acordes

Big In Japan

	  

 
Title: 
Album: Don't give me names
Tab  : Felix Kiesewetter ([email protected])

____________________________________________________________________________________________
BASS TAB

Standard tuning (E,A,D,G)

Intro
G|--------------------------------------------------------------------|
D|--------------------------------------------------------------------|
A|---------3-3-3-33-5-5---5-2-2-2-22-3-3---3-0-0-0-00-2-2-2-2-2-2-2-2-|
E|-0-0---0------------------------------------------------------------|

G|-------------------------------------------------------|
D|-------------------------------------------------------|
A|---------3-3-3-33-5-5---5-2-2-2-22-3-3---3-0-0-0-00-2*-|
E|-0-0---0-----------------------------------------------|


Verse
G|--------------------------------------------------|
D|--------------------------------------------------|
A|--------------------------3-3--3-3--3-3--3-3--3-3-|
E|-0-0--0-0--0-0--0-0--0-0--------------------------|

G|--------------------------------------------------|
D|--------------------------------------------------|
A|-5-5--5-5--5-5--5-5--5-5--2-2--2-2--2-2--2-2--2-2-|
E|--------------------------------------------------|


Pre-chorus
G|------------------------------------------------|
D|------------------------------------------------|
A|---------3-3--3--5-5--5--2-2--2--3-3--3--0-0--0-|
E|-0-0--0-----------------------------------------|

G|--------------------|
D|--------------------|
A|--------------------|
E|-2-2--2-2--2-2--2-2-|

G|------------------------------------------------|----|
D|------------------------------------------------|----|
A|---------3-3--3--5-5--5--2-2--2--3-3--3--0-0--0-|----|
E|-0-0--0-----------------------------------------|-2*-|


Bridge
G|-----|-----|-----|----|
D|-----|-----|-----|----|
A|-5-7-|-7-3-|-3-5-|-2*-|
E|-----|-----|-----|----|

G|-------------------------|
D|-------------------------|
A|-(5-5---2-2---5-5---2-2)-|
E|-------------------------|    <- you don't have to play this,
                                   but it sounds good

End                                                  x3
G|--------------------------------------------------|
D|--------------------------------------------------|
A|-------333333555555222222333333000000222222222222-|
E|-000000-------------------------------------------|

G|----------------------------------------------------|
D|----------------------------------------------------|
A|-------333333555555222222333333000000-2-2-2-2-3-4---|
E|-000000-------------------------------------------0-|



structure:
Intro
Verse x2
pre-chorus
Chorus
Verse x2
pre-chorus
Chorus
Bridge
End


* let the note ring

	  

No existe una video leccione para esta canción

request
LosAcordes
Buscar
auto avanzar rasgueos aumentar disminuir cambiar color esconder acordes gráficos
losacordes exhibir acordes losacordes youTube video losacordes ocultar tabs losacordes ir hacia arriba losacordes