Goo Goo Dolls

Início > Goo Goo Do... > acordes

Slide Tablatura Bajo

Goo Goo Dolls

Dificultad:Ningún gradoNingún grado

tuner correct add songbook print version text version salvar en e-mail
acordesukuleletablaturabaixobateriaarmónicaflautacavacopiano Guitar Pro
acordes

Slide

Áño: 1998 - Álbum: Dizzy up the Girl

	  

Band: 
 
Type: Bass Tab

Intro:
G|---------------------------------------|
D|----2---0------------------------------|
A|-----------3---------------------------| 
E|-------------3---2---------------------|

Verse:
G|---------------------------------------------|
D|------------000000---------------------------|
A|----------------------333333---333-----------|
E|---000000-----------------------------3----2-|

Pre-Chorus:
G|-----------------------------------------|
D|----------------------00-----------------|
A|-----3-------3---------------------------|
E|-----------------------------------------|

Chorus:
G|------------------------------------------------|
D|-----------------------------------000000000000-|
A|--333-------333-------333-----------------------|
E|-------333-------333-------333------------------|

Bridge:
G|-------------------------------------------------------------------------------------------------- |
D| ----------------000000--------------------------------------------000000----------------------------- |
A| ----------------------------333333---333-------------------------------------333333333333-------  |
E  | ----000000-----------------------------------3---2---000000----------------------------------------  |

Outro:
G|------------------------------0------|
D|-----2----0--------------------------| 
A|---------------3---------------------|
E|-------------------3----2------------|

	  

No existe una video leccione para esta canción

request
LosAcordes
Buscar
auto avanzar rasgueos aumentar disminuir cambiar color esconder acordes gráficos
losacordes exhibir acordes losacordes youTube video losacordes ocultar tabs losacordes ir hacia arriba losacordes