Goo Goo Dolls

Início > Goo Goo Do... > acordes

Iris Tablatura Bajo

Goo Goo Dolls

Dificultad:IntermedioIntermedio

tuner correct add songbook print version text version salvar en e-mail
acordesukuleletablaturabaixobateriaarmónicaflautacavacopiano Guitar Pro
acordes

Iris

Áño: 1998 - Álbum: Dizzy up the Girl

Tono:  D
	  

Album: City of Angels (soundtrack)
  

Return to Music X

Music X Bass Tab

    
  BTAB: 
 
 Album: City of Angels (soundtrack)
    
 Author: Rattman ([email protected])

**Padrino's Bass Tab Exclusive!**

This song has a lot of changes but its very easy as far as the actal playing,
the trick is remembering the changes.

Verse:
G-------------
D-0-2-5-------
A-------2-0---
E-----------3-

Chorus:
G-------
D-------
A-2-0---
E-----3-

After First Chorus:
G-----------------
D-----------------
A-2-2-4-4-5-------
E-----------3-3-3-

After Second Chorus(and various other breaks in the lyrics):
G--------------
D--------------
A-3-4-5--2-0---
E------------3-

Bridge(the part with the fast stops, stops are marked with *):
G-----------------------------------
D-----------------------------------
A-2-2-2-2-*-4-4-4-4-*-4-5-----------
E-------------------------3-3-3-3-3-

During Guitar Solo:

G-------------------------------------------------------------------
D-------------------------------------------------------------------
A-------------------------------------------------2-2-2-2-2-2-2-2-2-
E-3-3-3-3-3-3-3-3-2-2-2-2-2-2-2-2-3-3-3-3-3-3-3-3-------------------

It will take you some time to get all the changes down, but it sounds great
when you do. If you have any corrections let me know, I don't have a very
clear recording of this song.

 Taken from Padrino's Bass Tab Archive: http://members.xoom.com/jszalma/

	  

No existe una video leccione para esta canción

request
LosAcordes
Buscar
auto avanzar rasgueos aumentar disminuir cambiar color esconder acordes gráficos
losacordes exhibir acordes losacordes youTube video losacordes ocultar tabs losacordes ir hacia arriba losacordes