Fito & Fitipaldis

Início > Fito & Fit... > acordes

Por La Boca Vive El Pez Tablatura Bajo

Fito & Fitipaldis

Dificultad:Ningún gradoNingún grado

victborges

tuner correct add songbook print version text version salvar en e-mail
acordesukuleletablaturabaixobateríaarmónicaflautacavacopiano Guitar Pro
acordes

Por La Boca Vive El Pez

	  
G|---------------------------------------------------------------------------| 
D|---------------------------------------------------------------------------| 
A|-----6-----8-3-3---3-3-------6-----8-3-3---1-------------------------------| 
E|-4-4---6-6-------3-----3-4-4---6-6-------3---3-----------------------------| 

  Algo lo que me invade..... 
G|----------------------------| 
D|----------------------------| 3 Repetitions 
A|-----6-----8-3-3---3-3------| 
E|-4-4---6-6-------3-----3----| 

G|----------------------------|  
D|----------------------------| 
A|-----6-------8---3---1-3----| 
E|-4-4---4-6-6---6---3--------| 

  Sabes que soñare..... 
G|-------------------------------| 
D|-------------------------------| 2 Repetitions 
A|-----8-------6---3-3---3-3-----| 
E|-6-6---6-4-4---4-----3-----3---| 

  Este mar cada vez..... 
G|---------------------------------------------------------------------------| 
D|---------------------------------------------------------------------------|  
A|-----6-----8-3-3---3-3----1-----6-------8---3-3---3-3---1------------------| 
E|-4-4---6-6-------3-----3----4-4---4-6-6---6-----3-----3--------------------| 

  Tu eres aire yo papel..... 
G|------------------------------------------------------| 
D|-----------------5-----5-----------------5-----5------| 2 Repetitions 
A|---3-6---3-6-3-6---3-6-----3-6---2-5-3-6---3-3--------| 
E|-4-----4-----------------4-----3----------------------| 

  (Solo de Saxo) 
G|---------------------------------------------------------------------------| 
D|-----5---------------------------------------------------------------------| 
A|-3-3---3-----6-------8---3-3---1-3-3---3-----6-----8-3-3---1-3-------------| 
E|---------4-4---4-6-6---6-----3-------3---4-4---6-6-------3-----------------| 

  Dime por que preguntas..... 
G|----------------------------| 
D|----------------------------| 3 Repetitions 
A|-----6-----8-3-3---3-3------| 
E|-4-4---6-6-------3-----3----| 

G|----------------------------| 
D|----------------------------| 
A|-----6-------8---3---1-3----| 
E|-4-4---4-6-6---6---3--------| 
   
  Sabes que soñare..... 
G|-------------------------------| 
D|-------------------------------| 2 Repetitions 
A|-----8-------6---3-3---3-3-----| 
E|-6-6---6-4-4---4-----3-----3---| 

  Este mar cada vez..... 
G|---------------------------------------------------------------------------| 
D|---------------------------------------------------------------------------|  
A|-----6-----8-3-3---3-3----1-----6-------8---3-3---3-3---1------------------| 
E|-4-4---6-6-------3-----3----4-4---4-6-6---6-----3-----3--------------------| 

  No estas conmigo..... 
G|-------------------------------| 
D|-------------------------------| 
A|-------------------------------| 
E|-1-s-8---3-s-8--888888---------| 

  Me he dado cuenta..... 
G|-------------------------------------------------------------------------------------------------| 
D|-------------------------------55----------55----------------------------------55----------55----|2 Repet. 
A|-------33----------33----33-66----66-33-66----66----22-55-22----22-55-22-33-66----66-33-66----66-| 
E|-11-44----44-11-44----44-------------------------33----------33----------------------------------| 

  (Solo de Guitarra) 
G|---------------------------------------------------| 
D|-----------------5-----5-----------------5-----5---|2 Repetitions 
A|-----3-----3-3-6---3-6-----3-6---2-5-3-6---3-6-----| 
E|-1-4---1-4---------------4-----3-------------------| 

  (Solo Saxo y Guitarra) 
G|---------------------------------------------------| 
D|-----------------5-----5-----------------5-----5---|2 Repetitions 
A|-----3---1---3-6---3-6-----3-6---2-5-3-6---3-6-----| 
E|-1-4---3---3-------------4-----3-------------------| 

  Final 
G|----------------------------| 
D|-----------------5-----5----|2 Repetitions 
A|---3-6---2-5-3-6---3-6------| 
E|-4-----3--------------------| 

G|----------------------------| 
D|----------------------------| 
A|---3-6-5-----3--------------| 
E|-4-------7-3----------------| 
	  

No existe una video leccione para esta canción

request
LosAcordes
Buscar
auto avanzar rasgueos aumentar disminuir cambiar color esconder acordes gráficos
losacordes exhibir acordes losacordes youTube video losacordes ocultar tabs losacordes ir hacia arriba losacordes