Everclear

Início > Everclear > acordes

AM Radio Tablatura Bajo

Everclear

Dificultad:Ningún gradoNingún grado

tuner correct add songbook print version text version salvar en e-mail
acordesukuleletablaturabaixobateríaarmónicaflautacavacopiano Guitar Pro
acordes

AM Radio

	  







evrclear
album:songs fom an american movie vol. 1
tabbed by bassboy99
This tab may not be perfect because it sounds like it is coming out of an Am radio. The drums and bass are kind of merged together. But this is what I heard.
   	this is the riff through most of the song. If you want you can also play the last A as a G# and bend it.
G------------------------------------------------------------
A--------------22-2-------------------------------------------
D------7/1------------0-0-0-xx-0-22-2-0-------------------------------
E--0-0-xx---0------4-------------------------------------------
    play these clicks during the slide	
  this is the intro to the chorus which is the same as the riff above
G-----------------
D----------------
A----2-2-------
E-----------------
	"I'd be in bed with the radio on..."
G---------------------------------------------------------
D------------------------------------------------------------
A--4-4-4-4-4-4-4-4---------------------0-0-0-0-0-0-0-0-2-2---------------------
E-----------------------2-2-2-2-2-2-2-2------------------------------
	"Aw mom not that show again.." (the 12 is a 1 then a 2 not a 12)
G-------------------12-----2-44-4-2---------------------------------
D--2-----22------2-----------------------------------------------
A------------------------------------------------------------
E------------------------------------------------------------
	guitar solo
G---------------------------------------------------------
D------------------------------------------------------------
A--4-4-4-4-4-4-4-4---------------------0-0-0-0-0-0-0-0-0-0-0-0-0-0-0-0-------------
E-----------------------2-2-2-2-2-2-2-2------------------------------
	This is the weird part with the whistles
G---------------------------------------------
D---------------------------------------------
A---------------------------------------------
E---0/15\0------------------------------------------

and that is it. The arrangement is pretty easy so figure it out yourself.

	  

No existe una video leccione para esta canción

request
LosAcordes
Buscar
auto avanzar rasgueos aumentar disminuir cambiar color esconder acordes gráficos
losacordes exhibir acordes losacordes youTube video losacordes ocultar tabs losacordes ir hacia arriba losacordes