Ed Sheeran

Início > Ed Sheeran > acordes

Sing Tablatura Bajo

Ed Sheeran

Dificultad:PrincipiantePrincipiante

Teusalves

tuner correct add songbook print version text version salvar en e-mail
acordesukuleletablaturabaixobateríaarmónicaflautacavacopiano Guitar Pro
acordes

Sing

Tono:  E
	  G|-------------------------------------------------------------------| 
D|-------------------------------------------------------------------| 
A|-6-4-----------------------------6-4-------------------------------| 
E|-----7-6-4--4-4-4-4-4-2-4--14\-------7-6-4--4-4-4-4-4-2-4----------| 



G|-------------------------------------------------------------------| 
D|-------------------------------------------------------------------| 
A|-------4-4--4-4-4-4-4--9-11--16\---------4-4--4-4-4-4-4--9-11-16/--| 
E|-4-6-7-----------------------------4-6-7---------------------------| 
	  

No existe una video leccione para esta canción

request
LosAcordes
Buscar
auto avanzar rasgueos aumentar disminuir cambiar color esconder acordes gráficos
losacordes exhibir acordes losacordes youTube video losacordes ocultar tabs losacordes ir hacia arriba losacordes