Dream Theater

Início > Dream Thea... > acordes

The Killing Hand Tablatura Bajo

Dream Theater

Dificultad:Ningún gradoNingún grado

carlluz

tuner correct add songbook print version text version salvar en e-mail
acordesukuleletablaturabaixobateríaarmónicaflautacavacopiano Guitar Pro
acordes

The Killing Hand

	  
||----------------|----------||-------------|--------|
||----------------|----------||-------------|-(5)----|
||-------------|----------||----------------|--------|
||-------------|----------||-3--------------|--------|



|----------------|-----------------------|-------------|-------------------|
|----------------|-(5)----(5)--(5)-------|-------------|-------------------|
|----------------|-----------------------|-------------|-------------------|
|-3--------------|-----------------3-3-3-|-3-3---------|-----------3-3-3---|


|-------------|-----------------|--------------------|-----------------|
|-------------|-----------------|--------------------|-----------------|
|-------------|-----------------|--------------------|-----------------|
|-3-3---------|-----------3-3-3-|-3-3---3-3-3-3-3----|-----------3-3-3-|


|--------------------|-----------------|--------12----|-(12)-(12)\------------|
|--------------------|-----------------|--------------|-----------------------|
|--------------------|-----------------|--------------|-----------------------|
|-3-3---3-3-3-3-3----|-----------3-3-3-|-3-3----------|-----------------3-3-3-|



|--------12-------12-14-|-15-14--12------------|
|--------------12-------|------------15-(15)\--|
|-----------------------|----------------------|
|-3-3-------------------|----------------------|


|-----------------|------------------|
|-----------------|------------------|
|-----------------|------------------|
|-3-3-3-3-3-3-3-3-|-3-3-3-3-3-3-3-3--|



|-----------------|-----------------|-----------------|----------------|
|-----------------|-----------------|-----------------|--------5--3h5--|
|-----------------|-----------------|-----------------|----------------|
|-3-3-3-3-3-3-3-3-|-3-3-3-3-3-3-3-3-|-3-3-3-3-3-3-3-3-|-3--3-3---------|


  
|---------------|-10------------------|----------------|-----------(5)---|
|-------------8-|----10-(10)--(10)----|------12-----10-|--------------------|
|---------------|---------------------|---10------8----|--------------------|
|-3--3-3-3--3---|---------------------|-8-------6------|-3----(3)-----------|


  +W           H    +E   E  +Q     +W
|-(5)--------|-------------------|------------|
|---------------|-----------(5)--|-(5)--------|
|------------|-------------------|------------|
|------------|-3----(3)----------|------------|


|--------------(5)--|-(5)----(5)--(5)---|
|-------------------|-------------------|
|-------------------|-------------------|
|-3----(3)----------|-------------------|



|----------|----------------|----------|------------------|-------|
|----------|----------------|----------|------------------|-------|
|----------|-------------5--|----------|-------------/13--|-12----|
|-5--------|-(5)----(5)-----|-3--------|-(3)----(3)-------|-------|


 
|-------------------|-----------|
|-------------------|-----------|
|-(12)----(12)------|-10--------|
|---------------10--|-----------|


|-------------------|-------------------|-----------|
|-------------------|-10----(10)--(10)S=|=7---------|
|-(10)----(10)--13--|-------------------|------8----|
|-------------------|-------------------|-----------|


|------------15s14s12-|-(12)----(12)-------|-----------|--------------------|
|---------------------|--------------------|-----------|--------------------|
|-10----(10)----------|---------------/13--|-12--------|-(12)----(12)-------|
|---------------------|--------------------|-----------|---------------10---|

|------------12s14s15-|-(15)----(15)------|-12--------|------------------------|
|---------------------|---------------15--|-----------|-12----10--(10)\--------|
|-10----(10)----------|-------------------|-----------|------------------------|
|---------------------|-------------------|-----------|-----------------3-3-3--|


 
 
||----------------|-(5)----(5)--(5)-------|
||o---------------|-----------------------|
||o---------------|-----------------------|
||--3-3-----------|-----------------3-3-3-|



|---------------|-------------------------||
|---------------|-(5)----(5)--(5)--------o||
|---------------|------------------------o||
|-3-3-----------|-----------------5-5-5---||


   
|-------------|-----------------------|-------------|-------------------------|
|--------5----|-(5)----(5)--(5)-------|--------7----|-(7)----(7)--(7)---------|
|-------------|-----------------------|-------------|-------------------------|
|-3-3---------|-----------------3-3-3-|-3-3---------|-----------------3-3-3---|



|-------------|-----------------------|---------------|--------------------|
|--------8----|-(8)----(8)--(8)-------|--------/13----|-(13)---------------|
|-------------|-----------------------|---------------|---------/11s=/8\---|
|-3-3---------|-----------------3-3-3-|-3-3-----------|--------------------|



|----------------|-----------------|-----------------|------------------|
|------12-----10-|-----------------|-----------------|------------------|
|---10------8----|-----------------|-----------------|------------------|
|-8-------6------|-3-3-3-3-3-3-3-3-|-3-3-3-3-3-3-3-3-|-3-3-3-3-3-3-3-3--|

|-3-3-3-3-5-5-5-5-|-----------------|---------------|------------------|
|-----------------|-----------------|-5------5------|---------5-5------|
|-----------------|-----------------|---------------|------------------|
|-----------------|-3-3-3-3-3-3-3-3-|----3-3----3-3-|-3-3-3-3-----3-5--|


|-10------------------|--------------||----------|------|
|----10-(10)--(10)----|-----8-----10-||-5--------|-5----|
|---------------------|---6-----8----||----------|------|
|---------------------|-4-----6------||----------|------|


|----------|-5---------|----------|----------|------|
|-5--------|------7----|-5--------|-3--------|-5----|
|----------|-----------|----------|----------|------|
|----------|-----------|----------|----------|------|



|-5---------|-----------------------|------------------------|-----------------|
|------7----|---------5-------------|---------5--------------|------6--(6)-8-6-|
|-----------|--------------------5--|----------------------5-|-3---------------|
|-----------|-3-3-3-3----3-3-3-3----|-3-3-3-3----3-3-3-3-3---|-----------------|



|------8-7-5-------------|-----------------------|
|-5----------8-7-5-------|---------5-------------|
|------------------8-6-5-|--------------------5--|
|------------------------|-3-3-3-3----3-3-3-3----|


|------------------------|------10--8----|
|---------5--------------|------------8--|
|------------------------|---------------|
|-3-3-3-3----3-3-3-3-3-5-|-6-------------|



|------12-10-8---------||-----------------------|------------------------|
|-7------------12-10-8-||---------5-------------|---------5--------------|
|----------------------||--------------------5--|----------------------5-|
|----------------------||-3-3-3-3----3-3-3-3----|-3-3-3-3----3-3-3-3-3---|


 
|-----------------|------8-7-5-------------|
|------6--(6)-8-6-|-5----------8-7-5-------|
|-3---------------|------------------8-6-5-|
|-----------------|------------------------|


|-----------------------|------------------------|
|---------5-------------|---------5--------------|
|--------------------5--|------------------------|
|-3-3-3-3----3-3-3-3----|-3-3-3-3----3-3-3-3-3-5-|


|------10--8---|------12-10-8------|----------|
|------------8-|-7------------12-8-|----------|
|--------------|-------------------|-6--------|
|-6------------|-------------------|----------|



|----------|--------------------------|
|----------|---------5----------------|
|-5--------|--------------------5-----|
|----------|-3-3-3-3----3-3-3-3-------|



|------------------------|----------|----------|------------------------|
|---------5--------------|----------|----------|---------5--------------|
|----------------------5-|-6--------|-8--------|--------------------5---|
|-3-3-3-3----3-3-3-3-3---|----------|----------|-3-3-3-3----3-3-3-3-----|

|-15p7h8h10-15p7h8h10-14p7h8h10-14p7h8h10-12p7h8h10-12p7h8h10-7\--||
|-----------------------------------------------------------------||
|-----------------------------------------------------------------||
|-----------------------------------------------------------------||



|------12-10-----------|------|
|-7----------12-10-7-8-|------|
|----------------------|-6----|
|----------------------|------|


|----------|-----------------------|------------------------|------|
|----------|---------5-------------|---------5--------------|------|
|-5--------|--------------------5--|----------------------5-|-6----|
|----------|-3-3-3-3----3-3-3-3----|-3-3-3-3----3-3-3-3-3---|------|



|----------||--------------------------|--------------------------|
|----------||o-------------------------|--------------------------|
|-8--------||o-------------------------|--------------------------|
|----------||--8-8-8-8-8-8-8-8-8-8-8-8-|-8-8-8-8-8-8-8-8-8-8-8-8--|


               
|-----------------------|----------------|-----17-17-------15-15--------||
|-----------------------|-------------8--|-----------------------------o||
|-----------------------|-11----10-------|-11--------15-15-------15-15-o||
|-8-8-8-8-8--(8)-8-8-8--|----------------|------------------------------||



|-----------------|-----------------|-8---------------|------|
|-----------------|-10-8------------|---12-10-9-10-12-|------|
|---------10-8----|------11-8-10-11-|-----------------|------|
|-8-10-11------11-|-----------------|-----------------|------|


  
||--------------------------|-------------------------|-----------------------|
||o-------------------------|-------------------------|-----------------------|
||o-------------------------|-------------------------|-----------------------|
||--8-8-8-8-8-8-8-8-8-8-8-8-|-8-8-8-8-8-8-8-8-8-8-8-8-|-8-8-8-8-8--(8)-8-8-8--|


             

|----------------|-----17-17-------15-15--------||
|-------------8--|-----------------------------o||
|-11----10-------|-11--------15-15-------15-15-o||
|----------------|------------------------------||


|--------------|----------------------|
|-10-----------|----------------------|
|--------------|-11----(11)--(11)-11--|
|--------------|----------------------|


|--------------|-----------|---------------|----------------|
|--------------|-8----9----|-10------------|----------------|
|-12-----------|-----------|-----------10--|-11--------11---|
|--------------|-----------|---------------|----------------|



|---------------|-----------||----------------------------------|
|---------------|-8----9----||o---------------------------------|
|-12--------12--|-----------||o-3-3-3-3-3-3-3-3-3-3-3-3-3-3-3-3-|
|---------------|-----------||----------------------------------|


|---------------------------------|---------------------------------|
|---------------------------------|---------------------------------|
|---------------------------------|---------------------------------|
|-4-4-4-4-4-4-4-4-4-4-4-4-4-4-4-4-|-5-5-5-5-5-5-5-5-5-5-5-5-5-5-5-5-|


|-------------------------------------||
|------------------------------------o||
|------------------------------------o||
|-6-6-6-6-6-6-6-6-7-7-7-7-7-7-7-7-----||


|-------------------------|-------------------------|------------------------|
|-------------------------|-------------------------|------------------------|
|-------------------------|-------------------------|------------------------|
|-8-8-8-8-8-8-8-8-8-8-8-8-|-8-8-8-8-8-8-8-8-8-8-8-8-|-8-8-8-8-8--(8)-8-8-8---|

|----------------|-----17-17-------15-15-------|-----------|---------|
|-------------8--|-----------------------------|-15--------|-(15)----|
|-11----10-------|-11--------15-15-------15-15-|-13--------|-(13)----|
|----------------|-----------------------------|-----------|---------|


||----------|------------|-10--------|---------------------|
||----------|------------|--8--------|---------------------|
||-3--------|-(3)--------|-----------|-/10----(10)--(10)\--|
||----------|------------|-----------|---------------------|


|-------------|-(5)--------|-8--------|-10----|
|-------------|------------|----------|-------|
|-3-----------|-(3)--------|----------|-------|
|-------------|------------|----------|-------|
  


||--------------|-(5)--------|-10--------|---------------------||
||o-------------|------------|--8--------|--------------------o||
||o-3-----------|-(3)--------|-----------|-10----(10)--(10)\--o||
||--------------|------------|-----------|---------------------||
   


|-----12s14-(14)----|-----------||-----------|--------|
|-13----------------|-15--------||o----------|--------|
|-11----------------|-13--------||o-3--------|-(3)----|
|-------------------|-----------||-----------|--------|


|-10--------|------------------||-----12s14-(14)----|-----12s=13--------|
|--8--------|-----------------o||-13----------------|-15----------------|
|-----------|-/10----(10)\----o||-11----------------|-13----------13\---|
|-----------|------------------||-------------------|-------------------|


|-------------------|----10--(10)----|-(10)--------||--------------|
|-------------------|-----8---(8)----|--(8)--------||o-------------|
|----3-------(3)----|----------------|-------------||o-3-3---------|
|-------------------|----------------|-------------||--------------|



|----------|-10--------|---------------------||-8--------|-10----|
|----------|--8--------|--------------------o||-6--------|--8----|
|----------|-----------|-10----(10)--(10)\--o||----------|-------|
|----------|-----------|---------------------||----------|-------|


              
||--------------|-------------|-10--------|---------------------||
||o-------------|-------------|--8--------|--------------------o||
||o-3-3---------|-3-3---------|-----------|-10----(10)--(10)\--o||
||--------------|-------------|-----------|---------------------||



|-----12s14-(14)----|-----12s=13-------|
|-13----------------|-15---------------|
|-11----------------|-13----------10\--|
|-------------------|------------------|


||-----------|---------------5--------------------|
||o-7--------|-7h8p7p5-5h7h8----------------------|
||o-5--------|-----------------8h10h12s13-(13)\---|
||-----------|------------------------------------|


|-12----14----|-9-----------|------------------10-9----|
|-10----------|-7-----------|----------12-(12)------12-|
|-------------|------/13----|----13-12-----------------|
|-------------|-------------|-10-----------------------|



|----------------------------10-12-14-------14-17-19\----|
|-------------------10-12-14----------15-17--------------|
|----------10-12-13--------------------------------------|
|-10-12-13-----------------------------------------------|


|-------------------|--------------------||
|-15--17s19-(19)----|-17--19s20-(20)----o||
|-------------------|-------------------o||
|-------------------|--------------------||


 
|----------------------------------14--------------------|-------------------|
|-15h17p15-14-------14h15p14-15-17-------------12-(12)\--|-15--17s19-(19)----|
|-------------17-15-------------------12-13-15-----------|-------------------|
|--------------------------------------------------------|-------------------|



|-------------------||------------------------|------------------------|
|-17--19s20-(20)----||------------------------|------------------------|
|-------------------||------------------------|------------------------|
|-------------------||-6-6-6-6-6-6-6-6-6-6-6--|-4-4-4-4-4-4-4-4-4-4-4--|


|------------------------|------------------------|
|------------------------|------------------------|
|-3-3-3-3-3-3-3-3-3-3-3--|-3-3-3-3-3-3-3-3-3-3-3--|
|------------------------|------------------------|



|-----------------------------------|
|-10-10-10-10-10-10-10-10-10-10-10--|
|-----------------------------------|
|-----------------------------------|


  
|-----------------------------------|
|-10-10-10-10-10-10-10-10-10-10-10--|
|-----------------------------------|
|-----------------------------------|



|-----------------------------------|------------------------|
|-----------------------------------|------------------------|
|-10-10-10-10-10-10-10-10-10-10-10--|-8-8-8-8-8-8-8-8-8-8-8--|
|-----------------------------------|------------------------|



|------------------------|---------------|---------------*|
|-8-8-8-8-8-8-8-8-8-8-8--|---------------|---------------*|
|------------------------|---------------|---------------*|
|------------------------|---------------|---------------*|
 
	  

No existe una video leccione para esta canción

request
LosAcordes
Buscar
auto avanzar rasgueos aumentar disminuir cambiar color esconder acordes gráficos
losacordes exhibir acordes losacordes youTube video losacordes ocultar tabs losacordes ir hacia arriba losacordes