Dream Theater

Início > Dream Thea... > acordes

Stream Of Consciousness Tablatura Bajo

Dream Theater

Dificultad:Ningún gradoNingún grado

tuner correct add songbook print version text version salvar en e-mail
acordesukuleletablaturabaixobateríaarmónicaflautacavacopiano Guitar Pro
acordes

Stream Of Consciousness

	  




Train of Thought

Tabbed by Dave Futers, this awesome song is played on a 5 or 6 string bass with the regular tuning - enjoy.

|--------|--------------------------------------------|
|-Guitar-|--------------------------------------------|
|-Intro--|-4~--2~--4~--2~--2-2-0~---------------------|
|--------|-------------------------4~--4-4-2~-0~---4~-|
|--------|---------------------------------------4~---|

|---------------------------------------x2|
|-----------------------------------------|
|-4-4-4-4-4-4-4-4-4-4-2-2-2-2-2-2-2-2-2-2-|
|-----------------------------------------|
|-----------------------------------------|

|-----------------------------------------|
|-----------------------------------------|
|-0-0-0-0-0-0-0-0-0-0---------------------|
|---------------------4-4-4-4-4-4-4-4-4-4-|
|-----------------------------------------|

|-------------------------------------------|
|-------------------------------------------|
|-------------------------------------------|
|-2-2-2-2-2-0-0-0-0-0-------------4-4-4-4---|
|---------------------4-4-4-4-4-4-----------|
 
|----------------------------|--------------------x2|
|------------------6-4-------|----------------------|
|--4-4-4-4-4-4-4-4-----7-6-4-|-2-2-2-2-2-2-2-2-2-2--|
|----------------------------|----------------------|
|----------------------------|----------------------|
 
|-------------|-------------|---------------------|
|-------------|-------------|---------------------|
|-------------|-------------|-2-2-2-2-2-----------|
|-4-4-4-4-4-4-|-5-5-5-5-5-5-|-----------2-2-2-2-2-|
|-------------|-------------|---------------------|

|-------------|-------------|---------------------|
|-------------|-------------|---------------------|
|-------------|-------------|---------------------|
|-4-4-4-4-4-4-|-5-5-5-5-5-5-|-0-0-0-0-0-0-0-0-0-0-|
|-------------|-------------|---------------------|
                           
|-------------|-------------|-------------|-------------|
|-------------|-------------|-6-7-6-7-6---|-6-7-6-7-6---|
|-------------|-------------|-------------|-------------|
|-4-4-4-4-4-4-|-4-4-4-4-4-4-|-----------4-|-----------4-|
|-------------|-------------|-------------|-------------|

|---------------------------------------x2|
|-----------------------------------------|
|-4-4-4-4-4-4-4-4-4-4-2-2-2-2-2-2-2-2-2-2-|
|-----------------------------------------|
|-----------------------------------------|

|-----------------------------------------|
|-----------------------------------------|
|-0-0-0-0-0-0-0-0-0-0---------------------|
|---------------------4-4-4-4-4-4-4-4-4-4-|
|-----------------------------------------|


|-------------------------------------------|
|-------------------------------------------|
|-------------------------------------------|
|-2-2-2-2-2-0-0-0-0-0-------------4-4-4-4---|
|---------------------4-4-4-4-4-4-----------|

|------|------|------|-5--6-|------|------|------|-11-8-9-6-|
|------|----6-|------|------|------|----6-|------|----------|
|-6--7-|-9----|-6--7-|------|-6--7-|-9----|-6--7-|----------|
|------|------|------|------|------|------|------|----------|
|------|------|------|------|------|------|------|----------|

|--------------5-6-8-9-8--6--5---------|--------------11-11-8-8-9-9-6-|
|-----7-6--6-7-----------------7-6-----|-----7-6--6-7-----------------|
|-6-7------------------------------9-7-|-6-7--------------------------|
|--------------------------------------|------------------------------|
|--------------------------------------|------------------------------|

|--------------5-6-8-9-8--6--5---------|--------------5-6-8-9-6-|
|-----7-6--6-7-----------------7-6-----|-----7-6--6-7-----------|
|-6-7------------------------------9-7-|-6-7--------------------|
|--------------------------------------|------------------------|
|--------------------------------------|------------------------|

|-------|-------|--------|-6--8-/13-|-------|-------|-------|-6~-----|
|-------|----6~-|-7--10~-|----------|-------|----6~-|-7--9~-|--------|
|-6--7~-|-9-----|--------|----------|-6--7~-|-9-----|-------|--------|
|-------|-------|--------|----------|-------|-------|-------|--------|
|-------|-------|--------|----------|-------|-------|-------|--------|

|-----------------------|----------------------------x2|
|-----------------------|-------------------------4-6--|
|-----------------------|-----------------6-4-6-7------|
|--4---4--4-4---4-4-4-4-|-4---4--4-4---4---------------|
|-----------------------|------------------------------|

|---------|-------x2|
|---------|---------|
|---------|---------|
|-4-4-4-4-|-4-4-4-4-|
|---------|---------|

|---------------------------------------------|
|--6--4-6-7------------------------4----------|
|------------3--5-6---4--6-7---6-7---7-6-4-3--|
|---------------------------------------------|
|---------------------------------------------|

|---------------------------------------------|
|--6--4-6-7------------------------4-----7-4--|
|------------3--5-6---4--6-7---6-7---7-6------|
|---------------------------------------------|
|---------------------------------------------|
               
|--------------|---------------x2|
|--------------|-----------------|
|--------------|-----------------|
|-4-2----------|-4-5-----2-0-----|
|-----4-5--1-2-|-----4-5-----4-2-|
                                                     
|------------------------------------------------------x3|
|--------------------------------------------------------|
|--4--4-4-2-2---0--0-0-----------------------------------|
|----------------------4-4---2--2-2-0-0-0---------4-4-4--|
|------------------------------------------4--4-4--------|


|-------------------------------------------------------|------------|
|-------------------------------------------------------|------------|
|-4--4-4-2-2---0--0-0-----------------------------------|------------|
|---------------------4-4---2--2-2-0-0-0----------------|------------|
|------------------------------------------4--4-4-4-4-4-|-4--4-4-4~--|

|----------------------2-1---------------|----------------2-2-----1-1-----|
|----------------1-2-4------4--2-1-------|--------------------4-4-----2~--|
|-----3/4-3--3-4-------------------4-3---|-----3/4-3--3-4-----------------|
|-4-5----------------------------------5-|-4-5----------------------------|
|----------------------------------------|--------------------------------|

|----------------------2-1---------------|-----------------------------|
|----------------1-2-4------4--2-1-------|----------------1--2--1------|
|-----3/4-3--3-4-------------------4-3---|-----3/4-3--3-4----------4~--|
|-4-5----------------------------------5-|-4-5-------------------------|
|----------------------------------------|-----------------------------|
                                                         
|--------------------------------------------------------x3|
|----------------------------------------------------------|
|-4--4-4-2-2---0--0-0--------------------------------------|
|----------------------4-4---2--2-2-0-0-0-----------4-4-4--|
|-------------------------------------------4--4-4---------|

|--------------------------------------------------------|------------|
|--------------------------------------------------------|------------|
|-4--4-4-2-2---0--0-0------------------------------------|------------|
|----------------------4-4---2--2-2-0-0-0----------------|------------|
|-------------------------------------------4--4-4-4-4-4-|-4--4-4-4~--|

|----------------------2-1---------------|----------------2-2-----1-1-----|
|----------------1-2-4------4--2-1-------|--------------------4-4-----2~--|
|-----3/4-3--3-4-------------------4-3---|-----3/4-3--3-4-----------------|
|-4-5----------------------------------5-|-4-5----------------------------|
|----------------------------------------|--------------------------------|

|----------------------2-1---------------|----------------------------|
|----------------1-2-4------4--2-1-------|----------------2-1-2-1-----|
|-----3/4-3--3-4-------------------4-3---|-----3/4-3--3-4---------4-3-|
|-4-5----------------------------------5-|-4-5------------------------|
|----------------------------------------|----------------------------|

|--------------------------------|
|--------------------------------|
|-----------------2~------2~-----|
|-4~--0~--4~--0~------3~------3~-|
|--------------------------------|

|-----------------------------------------|------------------------x2|
|-----2-4-5-----2-4-5-----2-4-5-----2-4-5-|-----2-4-5----------2-4-5-|
|-3-6-------3-6-------3-6-------3-6-------|-3-6--------1-2-3-6-------|
|-----------------------------------------|--------------------------|
|-----------------------------------------|--------------------------|

|-------------------------------------------------3-5-6---------3-5-6-8----|
|-----2-4-5---------2-4-----5-7-8---------5-7-4-7-------2-3-4-7------------|
|-3-6-------1-2-3-6-----6-9-------4-5-6-9----------------------------------|
|--------------------------------------------------------------------------|
|--------------------------------------------------------------------------|


|-----------------|
|-2~-1~-----------|
|-------4~-2~-1---|
|---------------3-|
|-----------------|

|--------------------------------|
|--------------------------------|
|-----------------2~------2~-----|
|-4~--0~--4~--0~------3~------3~-|
|--------------------------------|

|-----------------------------------------|------------------------x1|
|-----2-4-5-----2-4-5-----2-4-5-----2-4-5-|-----2-4-5----------2-4---|
|-3-6-------3-6-------3-6-------3-6-------|-3-6--------1-2-3-6-------|
|-----------------------------------------|--------------------------|
|-----------------------------------------|--------------------------|

|---------------------------3-5-6---------3-5-6-8----|
|-----5-7-8---------5-7-4-7-------2-3-4-7------------|
|-6-9-------4-5-6-9----------------------------------|
|----------------------------------------------------|
|----------------------------------------------------|

|-----------------|
|-2~-1~-----------|
|-------4~-2~-1---|
|---------------3-|
|-----------------|

|-----------------------------------------------------|
|--------------------------------------------1~----1~-|
|-----------------2~------2~-----3~----3~-------2~----|
|-4~--0~--4~--0~------3~------3~----4~----4~----------|
|-----------------------------------------------------|

|----13----14~----13----14~----14----13~----14----13~-x4|
|-11----11-----11----11---------------------------------|
|---------------------------14----14-----14----14-------|
|-------------------------------------------------------|
|-------------------------------------------------------|

|---------------------------------------x2|
|-----------------------------------------|
|-4-4-4-4-4-4-4-4-4-4-2-2-2-2-2-2-2-2-2-2-|
|-----------------------------------------|
|-----------------------------------------|

|-----------------------------------------|
|-----------------------------------------|
|-0-0-0-0-0-0-0-0-0-0---------------------|
|---------------------4-4-4-4-4-4-4-4-4-4-|
|-----------------------------------------|

|-------------------------------------------|
|-------------------------------------------|
|-------------------------------------------|
|-2-2-2-2-2-0-0-0-0-0-------------4-4-4-4---|
|---------------------4-4-4-4-4-4-----------|
 

|----------------------------|--------------------x2|
|------------------6-4-------|----------------------|
|--4-4-4-4-4-4-4-4-----7-6-4-|-2-2-2-2-2-2-2-2-2-2--|
|----------------------------|----------------------|
|----------------------------|----------------------|
 
|-------------|-------------|---------------------|
|-------------|-------------|---------------------|
|-------------|-------------|-2-2-2-2-2-----------|
|-4-4-4-4-4-4-|-5-5-5-5-5-5-|-----------2-2-2-2-2-|
|-------------|-------------|---------------------|

|-------------|-------------|---------------------|
|-------------|-------------|---------------------|
|-------------|-------------|---------------------|
|-4-4-4-4-4-4-|-5-5-5-5-5-5-|-0-0-0-0-0-0-0-0-0-0-|
|-------------|-------------|---------------------|
                           
|-------------|-------------|-------------|-------------|
|-------------|-------------|-6-7-6-7-6---|-6-7-6-7-6---|
|-------------|-------------|-------------|-------------|
|-4-4-4-4-4-4-|-4-4-4-4-4-4-|-----------4-|-----------4-|
|-------------|-------------|-------------|-------------|

|-------------------------------------------------------------|
|-------------------------------------2-2-2-2-2-2-------------|
|-4-4-4-4-4-4-6-6-6-6-6-6-2-2-2-2-2-2-------------0-0-0-0-0-0-|
|-------------------------------------------------------------|
|-------------------------------------------------------------|

|------------------------------------------------------------|
|------------------------------------------------------------|
|-------------------------3-3-3-3-3-3-4-4-4-4-4-4-6-6-6-6-6--|
|-------------4-4-4-4-4-4------------------------------------|
|-4-4-4-4-4-4------------------------------------------------|

|---4-4-4-4-4-4----------------------------------------------|
|---------------2-2-2-2-2-2----------------------------------|
|-6-------------------------0-0-0-0-0-0-------------4-4-4-4--|
|------------------------------------------------------------|
|---------------------------------------4-4-4-4-4-4----------|

|-----------x3|
|-------------|
|-4-4-4-4-4-4-|
|-------------|
|-------------|

|-----------------------------------------------|
|-----------------------------------------------|
|-4~--2~-2-2-4~--2~--2-2-0~---------------------|
|----------------------------4~--4-4-2~-0~---4~-|
|------------------------------------------4~---|

|------------------------------------------------------------|
|------------------------------------------------------------|
|---------------------------------4~~------------------------|
|-4-4-4-4~-4-4-4-4~-4-4-4-4~-4--4----------------------------|
|------------------------------------------------------------|


	  

No existe una video leccione para esta canción

request
LosAcordes
Buscar
auto avanzar rasgueos aumentar disminuir cambiar color esconder acordes gráficos
losacordes exhibir acordes losacordes youTube video losacordes ocultar tabs losacordes ir hacia arriba losacordes