Dream Theater

Início > Dream Thea... > acordes

Lifting Shadows Off A Dream Tablatura Bajo

Dream Theater

Dificultad:ExpertoExperto

tuner correct add songbook print version text version salvar en e-mail
acordesukuleletablaturabaixobateríaarmónicaflautacavacopiano Guitar Pro
acordes

Lifting Shadows Off A Dream

	  

 
 

This song is very ssssllloooowwwwwww..


  Intro (13 times)   
C----------4---------------------------------------
G--------------4-----------------5---------------
D------------------------------5-----4-----------
A----2-----------------4---------------------------
E--------------------3-----3-------------------------
B-0----0---------------------------------------------

Note: Harmonic


 Vocals enter
G---------------------------------------------------------
D---------------------------------------------------------
A----------------2----------------------------------------
E-3-3--2-2-0-0-------3-3-2-2-0-0-----0-0-3-3-5-5-----3-3--
B--------------0---0-------------0-0-------------3-3------
 

G---------------------------------------------------------------------------
D---------------------------------------------------------------------------
A--------------------------2-2-----2-2-----2-2---------3-3-2-2-----3-3------
E------3-3-----5-5-3-3-0-0-----3-3-----3-3-----3-3-0-0---------3-3-----5-5--
B--3-3-----0-0-------------------------------------------------------------
   

G---------------------------------------------------------------------------
D---------------------------------------------------------------------------
A-----------2~~----2~~-----------------------3~~--3----2~~--2~~-------------
E-3-3-0-0----------------3~~--3~~---0~~--0~~--------5-----------3~~--3~~----
B---------------------------------------------------------------------------
            As the rain is pouring down...

G---------------------------------------------------------------------------
D---------------------------------------------------------------------------
A----------3~~--3-----------------------------------------------------------
E-0~~--0~~--------5------0-0-3-3-5-5-----3-3-----3-3-----5-5-3-3-0-0-3-3----
B--------------------0-0-------------3-3-----3-3-----0-0--------------------

 					 (3:33)
G--------------------------------------|-------------------------------2-1--
D--------------------------------------|-------2-0---4-----------3-0-2------
A-------------------2-2--2-2--4-4--4~~-|-2---2-----------2---2--------------
E-3-3-3-3-5-5-5-5---3-3--3-3--5-5--5~~-|---2-------2---2---2---2------------
B--------------------------------------|------------------------------------
   She listens

G-----------------2-1----------2---2-7-5-------2---2---8-5-7-12-11-5-7------
D-0-2-------3-0-2-----3---3------2-------2---2---2---2----------------------
A-------5---------------3---2--------------0--------------------------------
E-----0---0-----------------------------------------------------------------
B---------------------------------------------------------------------------

G----5-----------------------------------11~------3~~---7~~-----------------
D--0-0--0-0-1---0-5-4-5-7-----7-8-10-0---0~~--0~--3~~---5~~-----------------
A-------------3-----------3-5-----------------------------------------------
E---------------------------------------------------------------------------
B---------------------------------------------------------------------------

G--11~------3~~---5~~-----11~------3~~---5~~---11~------3~~---5~~-----------
D--0~~--0~--3~~---5~~-----0~~--0~--3~~---5~~---0~~--0~--3~~---5~~-----------
A---------------------------------------------------------------------------
E---------------------------------------------------------------------------
B---------------------------------------------------------------------------

G---------------------------------------------------------------------------
D---------------------------------------------------------------------------
A-------------------2-2-2-2--4-4--4~~---------------------------------------
E--3-3--3-3-5-5-5-5-3-3-3-3--5-5--5~~--------3-3-----3-3-----5-5-3-3-0-0----
B----------------------------------------3-3-----3-3-----0-0----------------
					Lifting shadows off dream...


G----------------------------------|--------|-------------
D----------------------------------|-Intro--|-------------
A----------------------------------|--8x----|-------------
E------3-3-----3-3-----5-5-3-3-0-0-|--------|-------------
B--3-3-----3-3-----0-0-------------|--------|-------------

	  

No existe una video leccione para esta canción

request
LosAcordes
Buscar
auto avanzar rasgueos aumentar disminuir cambiar color esconder acordes gráficos
losacordes exhibir acordes losacordes youTube video losacordes ocultar tabs losacordes ir hacia arriba losacordes