Dream Theater

Início > Dream Thea... > acordes

Lie Tablatura Bajo

Dream Theater

Dificultad:Ningún gradoNingún grado

tuner correct add songbook print version text version salvar en e-mail
acordesukuleletablaturabaixobateriaarmónicaflautacavacopiano Guitar Pro
acordes

Lie

	  

 - 
AUTHOR: PATO MTZ


Intro (4 times)				(3x)
G--------------------------------|-----------------------------------------
D--------------------------------|-----------------------------------------
A--------------------------------|-----------------------------------------
E--------------------------------|-----------------------------------------
B--0-0-0-0-0-0-0-3-3-5-5-5-6-5-3-|--0-0-0-0-2-0-0-3-3-3-5-5-5-6-5-3--------

 
G--------------------------------|---------------------------------|-------
D--------------------------------|---------------------------------|-------
A--------------------------------|---------------------------------|-------
E--------------------------------|---------------------------------|-------
B--0-x-x-0-x-x-0-3-3-5-3-5-6-5-3-|--0-x-x-0-x-x-0-3-3-5-3-5-6-5-3--|-------
 Daybreak, at bottom of lake  	  I can't breathe And I won't get out
  it's a hundred degrees 
   
G--------------------------------|---------------------------------|-------
D--------------------------------|---------------------------------|-------
A--------------------------------|---------------------------------|-------
E--------------------------------|----------------2-5-5-2-5-2-5-7--|-------
B--0-x-x-0-x-x-0-3-3-5-3-5-6-5-3-|--0-x-x-0-x-x-0------------------|-------
    'til I figure it out  Though I'm weak like    I can't believe

G--------------------------------|---------------------------------|-------
D--------------------------------|---------------------------------|-------
A--------------------------------|---------------------------------|-------
E--------------------------------|---------------------------------|-------
B-0-x-x-0-x-x-0-3-3-3-5-3-5-6-5-3|--0-x-x-0-x-x-0-3-3-3-5-3-5-6-5-3|-------
  So you tell me 'trust me'	        Just let me show you	
  I can trust you


G--------------------------------|---------------------------------|-------
D--------------------------------|---------------------------------|-------
A--------------------------------|---------------------------------|-------
E--------------------------------|----------------2-5-5-2-5-2-5-7--|-------
B-0-x-x-0-x-x-0-3-3-3-5-3-5-6-5-3|--0-x-x-0-x-x-0------------------|-------
  But I gotta work it out  	   'cause I don't know if I know you
   in a shadow of doubt

G--------------------------------|-----------------------------------------
D--------------------------------|-----------------------------------------
A--------------------------------|-----------------------------------------
E--------------------------------|-----------------------------------------
B--0-0-0-0-0-0-0-3-3-5-5-5-6-5-3-|---0-0-0-0-0-0-0-3-3-5-5-5-6-5-3---------

G--------------------------------|-----------------------------------------
D--------------------------------|-----------------------------------------
A--------------------------------|-----------------------------------------
E--------------------------------|-----------------------------------------
B--0-0-0-0-0-0-0-3-3-5-5-5-6-5-3-|---0-0-0-0-0-0-0-3-3-5-5-5-6-5-3---------

G--------------------------------|-----------------------------------------
D--------------------------------|-----------------------------------------
A--------------------------------|-----------------------------------------
E--------------------------------|-----------------------------------------
B-0-x-x-0-x-x-0-3-3-3-5-3-5-6-5-3|---0-0-0-0-0-0-0-3-3-5-5-5-6-5-3---------
  Doing fine but don't                  ...        
  waste my time

G--------------------------------|-----------------------------------------
D--------------------------------|-----------------------------------------
A--------------------------------|-----------------------------------------
E--------------------------------|-----------------2-5-5-2-5-2-5-7---------
B-0-x-x-0-x-x-0-3-3-3-5-3-5-6-5-3|---0-x-x-0-x-x-0-------------------------
      ....                             The rain all day
          
G--------------------------------|---------------------------------|-------
D--------------------------------|---------------------------------|-------
A--------------------------------|---------------------------------|-------
E--------------------------------|---------------------------------|-------
B-0-x-x-0-x-x-0-3-3-3-5-3-5-6-5-3|--0-x-x-0-x-x-0-3-3-3-5-3-5-6-5-3|-------
  So you tell me trust me                 ...
  I can trust you

G--------------------------------|---------------------------------|-------
D--------------------------------|---------------------------------|-------
A--------------------------------|---------------------------------|-------
E--------------------------------|----------------2-5-5-2-5-2-5-7--|-------
B-0-x-x-0-x-x-0-3-3-3-5-3-5-6-5-3|--0-x-x-0-x-x-0------------------|-------
 try to work it out                I don't know if I know you

G--------------------------------|-----------------------------------------
D--------------------------------|-----------------------------------------
A--------------------------------|-----------------------------------------
E--------------------------------|-----------------------------------------
B--0-0-0-0-0-0-0-3-3-5-5-5-6-5-3-|---0-0-0-0-0-0-0-3-3-5-5-5-6-5-3---------
                  Don't tell me		     You wanted me

G--------------------------------|-----------------------------------------
D--------------------------------|-----------------------------------------
A--------------------------------|-----------------------------------------
E--------------------------------|-----------------------------------------
B--0-0-0-0-0-0-0-3-3-5-5-5-6-5-3-|---0-0-0-0-0-0-0-3-3-5-5-5-6-5-3---------
           Don't tell me			You thought of me

  (1:23)
G--------------------------------|-----------------------------------------
D--------------------------------|-----------------------------------------
A--------------------------------|-----------------------------------------
E--------------------------------|-----------------------------------------
B-5-3-5-0-5-0-0-6-5-3-5-0-5-0-0-6|---0-0-0-0-0-0-0-3-3-5-5-5-6-5-3---------
        I won't!			     I swear I won't!

G--------------------------------|-----------------------------------------
D--------------------------------|-----------------------------------------
A--------------------------------|-----------------------------------------
E--------------------------------|-----------------------------------------
B--0-0-0-0-0-0-0-3-3-5-5-5-6-5-3-|--5-3-5-0-5-0-0-6-5-3-5-0-5-0-0-6--------
     
G--------------------------------|-----------------------------------------
D--------------------------------|-----------------------------------------
A--------------------------------|-----------------------------------------
E--------------------------------|-----------------------------------------
B-5-3-5-0-5-0-0-6-5-3-5-0-5-0-0-6|---0-0-0-0-0-0-0-3-3-5-5-5-6-5-3---------
   I'll try  I swear I'll try

G--------------------------------|-----------------------------------------
D--------------------------------|-----------------------------------------
A--------------------------------|-----------------------------------------
E--------------------------------|-----------------------------------------
B-0-0-0---0--0-0-0--0-3-5-3------|--0-0-0---0--0-0-0--0-3-5-6--------------
  mother mary quite contrary	    Kiss the boys and make them wary

G--------------------------------|-----------------------------------------
D--------------------------------|-----------------------------------------
A--------------------------------|-----------------------------------------
E--------------------------------|---------0-2-5---------------------------
B-0-0-0---0--0-0-0--0-3-5-3------|--0-3-2~-------0-0-0---0--0-0-0-0-3-5-3--
  Things are getting just 	    It's a wonder I can still breathe
   a little bit scary				   


G--------------------------------|-----------------------------------------
D--------------------------------|-----------------------------------------
A--------------------------------|-----------------------------------------
E--------------------------------|---------------------------------0-2-5---
B-0-0-0---0--0-0-0--0-3-5-6------|0-0-0---0--0-0-0--0-3-5-3--0-3-2---------
  Never been much of 		   but nothing breaks like a broken promise
  a doubting Thomas

G--------------------------------|-----------------------------------------
D--------------------------------|-----------------------------------------
A--------------------------------|-----------------------------------------
E--------------------------------|-----------------------------------------
B--0-0-0-0-0-0-0-3-3-5-5-5-6-5-3-|---0-0-0-0-0-0-0-3-3-5-5-5-6-5-3---------
   You tell me 'bout your 	     but once is just enough for me
    two more coming

G--------------------------------|-----------------------------------------
D--------------------------------|-----------------------------------------
A--------------------------------|-----------------------------------------
E--------------------------------|-----------------------------------------
B--0-0-0-0-0-0-0-3-3-5-5-5-6-5-3-|---0-0-0-0-0-0-0-3-3-5-5-5-6-5-3---------
		Don't tell me			  You wanted me

G--------------------------------|-----------------------------------------
D--------------------------------|-----------------------------------------
A--------------------------------|-----------------------------------------
E--------------------------------|-----------------------------------------
B--0-0-0-0-0-0-0-3-3-5-5-5-6-5-3-|---0-0-0-0-0-0-0-3-3-5-5-5-6-5-3---------
		 Don't tell me			  You thought of me

G--------------------------------|-----------------------------------------
D--------------------------------|-----------------------------------------
A--------------------------------|-----------------------------------------
E--------------------------------|-----------------------------------------
B-5-3-5-0-5-0-0-6-3-5-3-0-3-0-0-3|---0-0-0-0-0-0-0-3-3-5-5-5-6-5-3---------
        I won't  I swear I won't

G--------------------------------|-----------------------------------------
D--------------------------------|-----------------------------------------
A--------------------------------|-----------------------------------------
E--------------------------------|-----------------------------------------
B--0-0-0-0-0-0-0-3-3-5-5-5-6-5-3-|---0-0-0-0-0-0-0-3-3-5-5-5-6-5-3---------

G--------------------------------|-----------------------------------------
D--------------------------------|-----------------------------------------
A--------------------------------|-----------------------------------------
E--------------------------------|-----------------------------------------
B-5-3-5-0-5-0-0-6-3-5-3-0-3-0-0-3|---0-0-0-0-2-0-0-3-3-5-5-5-6-5-3---------
   I'll try, I swear I'll try

G--------------------------------|-----------------------------------------
D--------------------------------|-----------------------------------------
A--------------------------------|-----------------------------------------
E--------------------------------|-----------------------------------------
B-0-0-0-0-2-0-0-3-3-5-5-5-6-5-3--|---0-0-0-0-2-0-0-3-3-5-5-5-6-5-3---------

				   (2:36)
G--------------------------------|-----------------------------------------
D--------------------------------|-----------------------------------------
A--------------------------------|-----------------------------------------
E--------------------------------|--------1-1-1-3-3-3-------------1-1-1----
B-0-0-0-0-2-0-0-3-3-5-5-5-6-5-3--|--3-3-3-------------1-1-1-3-3-3----------

G--------------------------------|-----------------------------------------
D--------------------------------|-----------------------------------------
A--------------------------------|---------------------3-------------------
E3-3-----1-------1-1-1-3-3-3-----|------1-1-1-3-1-3-5---------1-1-1-3-3-3--
B-----3---3-3-3-------------1-1-1|3-3-3-----------------3-3-3--------------

G--------------------------------|-----------------------------------------
D--------------------------------|-----------------------------------------
A--------------------------------|-----------------------------------------
E-------------1-1-1-3-3-----1----|-------1-1-1-3-3-3-------------1-1-1-3---
B-1-1-1-3-3-3-----------1-3------|-3-3-3-------------1-1-1-3-3-3-----------

G--------------------------------|-----------------------------------------
D--------------------------------|-----------------------------------------
A-------3------------------------|-----------------------------------------
E-1-3-5---------1-1-1-3-3-3------|-------1-1-1-3-3-----1-------------------
B---------3-3-3-------------1-1-1|-3-3-3-----------1-3---------------------

G--------------------------------------------------------------------------
D--------------------------------------------------------------------------
A----------------------------------------------3---------------------------
E--------1-1-1-3-3-3-------------1-1-1-3-1-3-5---------1-1-1-3-3-3---------
B--3-3-3-------------1-1-1-3-3-3-----------------3-3-3-------------1-1-1---

G--------------------------------------------------------------------------
D--------------------------------------------------------------------------
A----------------------------------------------------------------------3---
E-------1-1-1-3-3-----1----------1-1-1-3-3-3-------------1-1-1-3-1-3-5-----
B-3-3-3-----------1-3-----3-3-3-------------1-1-1-3-3-3--------------------

(3:36)
G--------------------------------------------------------------------------
D--------------------------------------------------------------------------
A-------3-3-3-5-5-5--------------3-3-3-5-5-----3-------3-3-3-5-5-5---------
E-5-5-5-------------3-3-3--5-5-5-----------3-5---5-5-5-------------3-3-3-5-
B--------------------------------------------------------------------------

G--------------------------------------------------------------------------
D---------------2-5--------------------------------------------------------
A-----3-3-5-3-5-----------------2-2-2-------------------2-2----------------
E-5-5---------------2-2-2-5-5-5-------0-0-0-2-2-2-5-5-5-----0-2-5--2-2-2---
B--------------------------------------------------------------------------

					      (3:20)
G-------------------------------------------|------------------------------
D-------------------------------------------|------------------------------
A-------2-2-2---------------------------4-7-|-------2~---------------------
E-5-5-5--------0-0-0--2-2-2-5-5-5-7-5-7-----|----3~-------0~-1~--------2-3-
B-------------------------------------------|-0~-------0~-------0~--3~-----

							(3:39->4:00)
G----------------------------------------------------|------------------|--
D----------------------------------------------------|------------------|--
A----------------------2-----------------------------|------------------|--
E-2-----1------------------0-1------2-3--2-----1-----|------------------|--
B---0-0---0-0-3-2~-0-3---0-----0-3~--------0-0---0-0-|--0-0--0--0-0--0--|--

G--------------------------------------------------------------------------
D--------------------------------------------------------------------------
A--------------------------------------------------------------------------
E-------------------------------------------------3---------------------0--
B-0-0--0---0-0-0-0-0-3-5-3--0-0--0--0-0-0-0-0-3-5----0-0-0--0-0-0-3-5-3----

G--------------------------------------------------------------------------
D--------------------------------------------------------------------------
A-------5-7-9-7-5----------------------------------------------------------
E-2-5-7-------------------------------------------------5---------------5--
B-----------------0-0--0---0-0-0-0-0-3-5-3--0-3-5-3-0-3---3-0-3-5-3-0-3---3

G------------------------------------------------------------------------|-
D------------------------------------------------------------------------|-
A------------------------------------------------------------------------|-
E-0-0--0---0-0-0-0--0-0-0-0-0--3-3--3--3--3---5-5--5-5-5-5-5-5-5-5-------|-
B------------------------------------------------------------------------|-

G--------------------------------|-----------------------------------------
D--------------------------------|-----------------------------------------
A--------------------------------|-----------------------------------------
E--------------------------------|-----------------------------------------
B--0-0-0-0-0-0-0-3-3-5-5-5-6-5-3-|---0-0-0-0-0-0-0-3-3-5-5-5-6-5-3---------

G--------------------------------|-----------------------------------------
D--------------------------------|-----------------------------------------
A--------------------------------|-----------------------------------------
E--------------------------------|-----------------------------------------
B--0-0-0-0-0-0-0-3-3-5-5-5-6-5-3-|---0-0-0-0-0-0-0-3-3-5-5-5-6-5-3---------

G--------------------------------|-----------------------------------------
D--------------------------------|-----------------------------------------
A--------------------------------|-----------------------------------------
E--------------------------------|-----------------------------------------
B3-5-3--0-5-0-0-6-3-5-3-0-5-0-0-6|--0-0-0-0-0-0-0-3-3-5-5-5-6-5-3----------

G--------------------------------|-----------------------------------------
D--------------------------------|-----------------------------------------
A--------------------------------|-----------------------------------------
E--------------------------------|-----------------------------------------
B--0-0-0-0-0-0-0-3-3-5-5-5-6-5-3-|-5-3-5-0-5-0-0-6-5-3-5-0-5-0-0-3---------

G--------------------------------|-----------------------------------------
D--------------------------------|-----------------------------------------
A--------------------------------|-----------------------------------------
E--------------------------------|-----------------------------------------
B--0-0-0-0-0-0-0-3-3-5-5-5-6-5-3-|---0-0-0-0-0-0-0-3-3-5-5-5-6-5-3---------

G--------------------------------|-----------------------------------------
D--------------------------------|-----------------------------------------
A--------------------------------|-----------------------------------------
E--------------------------------|-----------------------------------------
B--0-0-0-0-0-0-0-3-3-5-5-5-6-5-3-|---0-0-0-0-0-0-0-3-3-5-5-5-6-5-3---------

	  

No existe una video leccione para esta canción

request
LosAcordes
Buscar
auto avanzar rasgueos aumentar disminuir cambiar color esconder acordes gráficos
losacordes exhibir acordes losacordes youTube video losacordes ocultar tabs losacordes ir hacia arriba losacordes