Dream Theater

Início > Dream Thea... > acordes

Instrumedley Tablatura Bajo

Dream Theater

Dificultad:ExpertoExperto

carlluz

tuner correct add songbook print version text version salvar en e-mail
acordesukuleletablaturabaixobateríaarmónicaflautacavacopiano Guitar Pro
acordes

Instrumedley

	  

Intro bass
G------------|-------------------------------------------|-------------------------------------------------|
D------------|-------------------------------------------|-------------------------------------------------|
A-55-5-55555-|-555-5-5-555-555-5-555-555-5555-5555-------|----------------3------------------3~--6~--------|
E------------|-------------------------------------------|-3~-4-3~--1-0~----2-3~-4-3~--1-0~----------------|

 Fig. 1                                                             Last end of Fig. 1
G------------------------------------------------------------------|-------------------|-------------------|
D-----5---3-6-5-3-------1h3h5-----------------9-10-----------6-----|----------5--------|-------------------|
A---5---5---------5---5-------3---------7-8-7----------------------|------------6------|-------------------|
E-3-----------------3-----------1-0~--7------------8-10-9--2---4-3-|--8-10-11-----6-4--|--3-4--3-4--3-4----|

G---------------------------------7-5---------------|-----------------------------------|-----------------|
D---------3-5-6---5-6--5-6--5-6-------6-5-----------|-----------------------------------|-----------------|
A-----3-5---------------------------------8-7-5-(5)-|-6-5~--3-2~---4-5~--6-5~--3--------|-PIANOS’ SOLO----|
E-3-4-----------------------------------------------|------------3---------------4~~-3\-|-----------------|

G---------------------------------7-5---------------|-------------------------------------|----------------|
D---------3-5-6---5-6--5-6--5-6-------6-5-----------|--------------------3-5-6------------|----------------|
A-----3-5---------------------------------8-7-5-(5)-|----------------3-5----------------5-|-TAPPY----------|
E-3-4-----------------------------------------------|--3-4--3-4--3-4------------6~--4~----|----------------|

  I/R  M/R    I/L     I/L    I/L    M/R
G------------------10--12---|
D-----12--9---9/10----------|
A-14------------------------|
E---------------------------|

METROPOLIS PT.1
INRO                                         X4
G---------------------------------------------|---3-----6------7----10------------------------------------------|
D-------3-3-3-------3-3-3-------3-3-3----2-3--|-------5-----------9---------------------20---2O-18--------------|
A--------------------------------------2------|---------------------------18---17-20-18------------21-20-19-18--|
E--0-0-0------0-0-0-------0-0-0---------------|-3------------7--------------------------------------------------|
                                                     X4
G--20----------------|----------------------------------|
D-------------17P16\-|----------------------------------|
A------17-17---------|-----------------3333222211110000-|
E--------------------|-3333222211110000-----------------|




EROTOMANIA
INTRO                                 X4
G-----------------------------------------|---------------------------------------------------------------|
D-----------------------------------------|---------9-8----6\------7-6---------5----------9-8---6\--------|
A-----------2-5-4----------------4-7-6----|--7---7-------7-----4-5-----4-5--------3-----7-----7-----------|
E-0-2-3-4-5-------3\---0-4-5-6-7-------5\-|----0-----------------------------3------1---------------------|

G--------------------------|------------------------------------------------------------------------------|
D-3-5-7----1-3-5-----------|------------------------------------------------------------12---7-10-9-------|
A-------5\-------3\--4-3-2-|-------------------10-10-10-9-9-9-8-8-8-7-7-7--10-10-10-9-12----8-------10-7--|
E--------------------------|-3-2-1-0--3-2-1-0-------------------------------------------------------------|


G---9------------7--------------------------------------|-----------------------------------7-9------9-10------|
D--9-9--7-5-----7-7-------------------------------------|---------------------44444----/9-10----11-12----------|
A----------8-7-5------------3~--0~----------5~--7~--5X--2-3X—5\----2222-------------5~--------------------10\--|
E------------------8-7\0-----------0~-4~\1~-------------|-------------44445555---------------------------------|

G----------------------------------------------|--------|-------------------------------------------------|
D--2-0-----------------------------------------|--------|-------------------------------------------------|
A-----2------1~~~111-3~3333-/5\-/7\-------1(1)-|--55555-|--------------------5~---------------------------|
E------4\0~--------------------------3(3)------|-------33333-55555-00000-1111---0(0)----------------------|


DANCE OF ETERNITY
intro
G---------------------------------------------|------------------------------------------------|----------|
D---------------------------------------------|----------------7777-----------------------7777-|----------|
A---------------------------------------------|-7777-7777-9999--------7777-7777-9999-9999------|----------|
E-0000-0000-0000-0000-0000-0000-0000-0000-000-|------------------------------------------------|----------|

G--------------------------------|----------|-----------------------------|---------------------------------|
D--------------------------------|----------|-----------------------------|-5-------2-----------------------|
A-7----6-------------------------|---10---9-|-7--6------------------------|---3-4-6-------3-4-----0-1-0-----|
E--7-9---7-0--10-9-0-8-7-0-6-5-2-|-9----8---|--7--7-0--10-9-0-8-7-0-6-5-2-|-----------5-6-----2-3-------3-2-|

G-----------------------------|--------------------------------8---8-11-|----------------------------|----|
D-----------------------------|---------------------9-10-11-12---9------|----------------------------|----|
A-7--6------------------------|-10-9---9-------10-9---------------------|-7-6------------------------|----|
E--7--7-0--10-9-0-8-7-0-6-5-2-|------12--11-12--------------------------|--7-7-0--10-9-0-8-7-0-6-5-2-|----|

G-------------------------|-----------------------------|-------------------------------------------------|
D-------------------------|-----------------------------|-------------------------------------------------|
A-3-3-3-3-3-3-2-(2)—2/3\2-|-7-7-7-7-7-7-7--4-4-3-3-2~-3-5-6-7-7-7-7-7-7-7--7777-9~-10-9-8--7-6-5-4-4-3-3--|
E-------------------------|-------------------------------------------------------------------------------|
G---------------------------------------------------------------------------------------------------------|
D---------------------------------------------------------------------------------------------------------|
A-2~-3-5-6--7-8-9-10\--12-12-12-12-12-12-12-14\-----------------------------------------------------------|
E---------------------------------------------------------------------------------------------------------|

METROPOLIS PT.1
Tapping 1
 l l  r r r   l   r r r x4 l l  r r r    l  r  r r  x4    l l   r r r   l   r r r x2 l l   r r r   l  r r r x 2
G-------11--------------|---------12--------------------|---------14----------------|--------16---------------|
D--4----------4---9-9---|---5------------5--10-10-------|--7-------------7--12-12---|--9-----------9--14-14---|
A------9--9-----------9-|-------10--10-----------10-----|-------12--12-----------12-|------14--14----------14-|
E-2---------------------|--3----------------------------|-5-------------------------|-7-----------------------|
                                Guitar & Keyboard solo                      Tappy 2
G------------|------------------------------|-------------r----l----l------10-----12-|--------------------|
D-2-4--------|----------------444-----------|-------r----12----9----9/10----l------r-|--------------------|
A------------|------------------------------|-l----14--------------------------------|--------------------|
E-----2(2)/\-|-222222222222222----222222222-|-7--------------------------------------|--------------------|

CHANGE OF SEASONS
Intro
G---------------------------------------------------------------------------------------------------------|
D---12-11-9-----------------9-----------------------------------------------------------------------------|
A-----------12-11-9-9-11-12---12-11-9-9-11-12-------------------------------------------------------------|
E---------------------------------------------------------------------------------------------------------| 
	  

No existe una video leccione para esta canción

request
LosAcordes
Buscar
auto avanzar rasgueos aumentar disminuir cambiar color esconder acordes gráficos
losacordes exhibir acordes losacordes youTube video losacordes ocultar tabs losacordes ir hacia arriba losacordes