Dream Theater

Início > Dream Thea... > acordes

Erotomania Tablatura Bajo

Dream Theater

Dificultad:ExpertoExperto

tuner correct add songbook print version text version salvar en e-mail
acordesukuleletablaturabaixobateriaarmónicaflautacavacopiano Guitar Pro
acordes

Erotomania

	  

  Riff A -> 2x
G---------------------------------------------------------------------------|
D---------------------------------------------------------------------------|
A---------2-5-4--------------4-7-6--------------2-5-4--------------4-7-6----|
E-2-3-4-5-------3--0-4-5-6-7-------5--0-2-3-4-5-------3--0-4-5-6-7-------5-0|

  Riff B -> 2x
G------------------------------------------------------------------------|--
D-------9-8---6-------7-6---5-------------9-8---6--3-5-7---1-3-5---------|--
A---7-------7----4-5----------3-------7-------7----------5-------4-3-2---|--
E-0---0-------------------3-----1---0---0--------------------------------|--

	       Riff C 8x  Riff D 4x (1:31)
G------|------|---------|-----------------------|-------|------|------------
D-Riff-|-Riff-|---------|-----------------------|-------|-Riff-|------------
A-A-2x-|-B-2x-|---------|-----------------------|-------|-A 2x-|------------
E------|------|-3-2-1-0-|-3-3-3-2-2-2-1-1-1-0-0-|-3-2-1-|------|------------

  (1:57) Riff E 2x
G-------------------------------------------------------------------|-------
D---------------------------------4---------------------------------|-------
A---------2-2-----------2/4-4-6-6---------2-2-2-----------2-2-4-4---|-------
E-4-4-2-4-----4-2-4-4-4-------------4-4-2-------4-2-4-4-4---------2-|-------

G---------------------------------------------------------------------------
D---------------------------------------------------------------------------
A-------2-2-2-----------2-2-4-4-------------------2-2\1-1---1-4-2-1---------
E-4-4-2-------4-2-4-4-4---------2-4-4-2-4-1-1-4-2---------4---------4-2-----

							    2:25
G---------------------------------------------------------|-----------------
D---------------------------2---2-------------------------|-----------------
A-------------------1-------------6\4-2-1---2-1-2-4-2-1---|-----------------
E-0-0-2-4-4-2-0-2-4---4-2-4---4-----------4-------------2-|-4-2-4--4-2-4-4--

G---------------------------------------------------------------------------
D---------------------------------------------------------------------------
A---------------------------------------------------------------------------
E-4/6-6-4-6--7-6-7--7-6-7-7/9-7-6-4-2---0-0-0-0-0-0-0-2/4-2-2-2-2-2-2-2-4/6-

					    2:39 Guitar Solo
G-----------------------------------------|---------------------------------
D-----------------------------------------|------------------------2~~~-4~~-
A-----------------------------------------|------1~~~~-2~~~--4~~~~----------
E-4-4-4-4-4-4-4-6/7-6-6-6-6-6-6-6-2-4-2-4-|-4~~-----------------------------

               Bass feel
G-1~~~--3~~~-|--------------------------------9-11--11-13--13-15-15-|-------
D------------|--9--9-11--11-13--13-14--14-14------------------------|-------
A------------|------------------------------------------------------|-------
E------------|------------------------------------------------------|-------

3:05 Riff F 8x     3:24
G---4-----4-4----|--------------------6--6-6-6--8--8-8-8--------------------
D----------------|-6--6-6--8--8-8--8----------------------6--6-6--8--8-8-8--
A-2----2-------2-|----------------------------------------------------------
E----------------|----------------------------------------------------------

		  3:43
G-6-6-8-8--13~~-|--------------------------------------7---11---11--11--14-11
D---------------|-9--9-9-9-9-9-9--9--9-9-9-9-9-9--9~~-----------------------
A---------------|----------------------------------------9----9-------------
E---------------|-----------------------------------------------------------

G-9-6--------------------------7----11--11--11--11-14-11-9-6----------------
D-----9~~-0-2-4-4-4-7-7-9-9~~-----------------------------------------------
A---------------------------------9---------------------------7~~-7-7-7-7-7-
E---------------------------------------------------------------------------

					4:14
G------------------------------9-7-5----------------------------------------
D--------------------------------------2--2-2-2-2-2-2-2-2-2-2-2-2-2-2-2-2-2-
A-7-7-7-7--7~~--7-7-7-7-7-7-7-----------------------------------------------
E---------------------------------------------------------------------------

						    4:24 -> 2x
G------------------------------------------------|-----------------------|---
D-------------7-7-7-7-7-7----------------12-10-9-|-2-2-2-0-0-0-0-0-0-----|---
A-5-5-5-5-5-5-------------9-9-9-9-9-9-9----------|-------------------3-3-|---
E------------------------------------------------|-----------------------|---

G-9-9-9-7-7-7-7-7-7-5-5--9-9-9-7--7-7-5-5-5--5--11-9-7-5--5-5-4-2-0---------
D---------------------------------------------------------------------7-4---
A-------------------------------------------------------------------3-----3-
E---------------------------------------------------------------------------

G---------------------------------------------------------------------------
D-2-----9~~--10~~--9--5-7--9--5-5-5-5-5-5-5-3-3-3-3-3-3-3-3-3-3-3-3-3-3-3-3-
A---5~~---------------------------------------------------------------------
E---------------------------------------------------------------------------

                     4:53
G-3-3-3-3-3-3-3-3-3--3~~---12-14-16~~----13-14-15-17~~----------------------
D------------------------------------------------------14~~---10-9-5-3------
A----------------------------------------------------------------------3----
E---------------------------------------------------------------------------

  5:03						     5:11 (Guitar Solo)
G-----------------------2-2-2-2-2-2-4-4-4-4-4-4--5-|------------------------
D-4-4-4--4-4-4--4-4-4-4----------------------------|-------5~~~--8--8-8-8-8-
A--------------------------------------------------|-7~~~-------------------
E--------------------------------------------------|------------------------

							   5:27
G-------------------------------------------------------|-------------------
D--------------------------------------------------9-9~-|-------------------
A-7--7-7-7-7-7---8--8-8-8-8---3--3-3-3-3---5-5--5-------|-3~~~~--3~~~~------
E-------------------------------------------------------|-------------------

	Riff G 2x
G--------------------6-----------------------|------|------|----------------
D----------------6-7-------------------4-----|-Riff-|-Riff-|----------------
A-5-5--5-5-5-5-5--------5-5--5-5-5-5-5---5-4-|-A 2x-|-B 2x-|----------------
E--------------------------------------------|------|------|----------------

	  

No existe una video leccione para esta canción

request
LosAcordes
Buscar
auto avanzar rasgueos aumentar disminuir cambiar color esconder acordes gráficos
losacordes exhibir acordes losacordes youTube video losacordes ocultar tabs losacordes ir hacia arriba losacordes