Dream Theater

Início > Dream Thea... > acordes

A Fortune In Lies Tablatura Bajo

Dream Theater

Dificultad:ExpertoExperto

tuner correct add songbook print version text version salvar en e-mail
acordesukuleletablaturabaixobateríaarmónicaflautacavacopiano Guitar Pro
acordes

A Fortune In Lies

	  

 - 
AUTHOR: PATO MTZ



INTRO
G-------------------------------------|--------------------------------------
D-------------------------------------|--------------------------------------
A--2~~-------2-3~-----2~~-------2--3~-|-2-2-2-2-2-2-2-2-2-2-2-2--3-3-3-3-3---
E-------0~~----------------0~~--------|--------------------------------------


G------------------------------|------------------|--------------------------
D------------------------------|------------------|--------------------------
A-2-2-2-2-2-2-2-2--------------|-2--2-2--2-2-2--2~|-2~~~------2~~~-----------
E-----------------3-3-3-3-3-3-3|------------------|------3-------------------


G----------------------------------------------------------------------------
D--5-3-------2~--------------------------------------------------------------
A------3-3-2-----3-2--------------0-2---5-7~-----2-2~~~~---------------------
E--------------------5-3-2----1-1--------------------------------------------

                            Quick bridge
G-------------------------|--------------------------------------------------
D-------------------------|--3-2-3-2-----------------------------------------
A--4~~~-------------------|----------3-2---------4-5-4-5-4-5-------5~~~~-----
E--------2~~~~----2~~~~~~-|--------------2-1-0---------------5-4-------------

                  The wild part!!!! 
		  The good part  (3 times)              Another quick bridge
G---------------|-------------------------------------|----------------------
D---------------|-------------------------------------|----------------------
A--5-4~~---4--2-|---------------------------2-3-------|-4-5-----------5------
E---------------|-2-2--2---2-2--2---2-2--2------------|-----7--7--4-3--------

                      The wild part again (vocals enter)
G-------------------|------------------------------------|-------------------
D-------------------|------------------------------------|-------------------
A--3-----5-5-3------|------------------------------------|-2~----------------
E----4-2-------5-4-3|--2-2--2---2-2--2---0-0--0---0-0--0-|----3-2-0---2~~~---


G---------------------------------------------|--------------|---------------
D---------------------------------------------|--------------|---------------
A--5~~---7~~~---2~~-------------5~~~~---7~~~~-|---2-5-6-3-2--|---------------
E-------------------3~~---2~~~----------------|-3------------|---------------


  Chorus
G----------------------------------------------7~----------------------------
D--------7~------------------------------------------------------------------
A-------------------7-------------7------5-5-5-----5-7-8-10-8-7--------------
E--5-5-5------5-7-8---8-7---5-7-8---8-7--------------------------------------

                           The slow part of the chorus
G--------7~--------------|---------------------------------------------------
D------------------------|-------5-7-9-10--12~~---5---------5-7-9-10-12~--5~-
A-5-5-5-----5-7-8-10-8-7-|----------------------------1-1~-------------------
E------------------------|--5~~---------------------------5~-----------------
								End chorus

  This part is REALLY quick   Wild again!!(oh yes!)
G-----3----2-0---------------|---------------------|-------------------------
D--------------2-0-----------|---------------------|-------------------------
A-1-1--------------3-1-0-----|---------------------|-------------------------
E------------------------3-1-|-0-0-0-0--0-0-0-00-0-|-2-2-2-2--2-2-2-2--2-2-2-

G----------------------------------------------------------------------------
D----------------------------------------------------------------------------
A--2~-----------------5~~---7~~---2~-----------5~~---7~~~--------------------
E------3~--2-0---2~~------------------3~--2~~--------------------------------

                                      Bridge to solo
G----------------|--------|-Wild----|----------------------------------------
D----------------|-Chorus-|-part----|----------------------------------------
A----2-5-6-3-2---|--------|-again---|---------2~~~~---5~~~~---4~~~~----------
E--3-------------|--------|w/-drums-|-0~~~~----------------------------------

  Guitar solo
G--------------------------------------------------------------------|-------
D--------------------------------------------------------------------|-------
A------------------------5--5-5-5---5--5-5-5----2--2-2-2----2--2-2-2-|-------
E--2--2-2---2--2-2-2-0-----------------------------------------------|-------

          End: Wild part on this
G----------------------------------------------------------------------------
D----------------------------------------------------------------------------
A----------------------------------------------------------------------------
E------0-0--0----0-0--0----0-0--0----0-0--1----------------------------------

	  

No existe una video leccione para esta canción

request
LosAcordes
Buscar
auto avanzar rasgueos aumentar disminuir cambiar color esconder acordes gráficos
losacordes exhibir acordes losacordes youTube video losacordes ocultar tabs losacordes ir hacia arriba losacordes