Dream Theater

Início > Dream Thea... > acordes

A Change of seasons Tablatura Bajo

Dream Theater

Dificultad:ExpertoExperto

tuner correct add songbook print version text version salvar en e-mail
acordesukuleletablaturabaixobateriaarmónicaflautacavacopiano Guitar Pro
acordes

A Change of seasons

	  





================================================================================
         Title : A Change of Season 1 - The Crimson Sunrise (0:00 - 3:49)
        Artist : 
         Album : A Change of Seasons
================================================================================

Legend
------

 h  = hammer-on
 p  = pull-off
 b  = bend
 r  = bend release
 /  = slide up/down
<5> = natural harmonic
5 = artifical harmonic
 ~  = vibrato
 tr = trill



     intro guitar
				    (0:22)
G----|----|----|----|----|----|----|------|------|-----|--------|------
D----|----|----|----|----|----|----|------|------|-----|--------|------
A----|----|----|----|----|----|----|---3--|-2----|-----|-0------|------
E----|----|----|----|----|----|----|------|------|-----|-----3--|-0----
B----|----|----|----|----|----|----|------|------|-----|--------|----3-

G|--|------|-----|-------|-------|------|------|-------|-------|-------
D|--|------|-----|-------|-------|------|------|-------|-------|-------
A|--|------|-----|-0-----|-------|------|------|-0--2--|-------|-------
E|--|------|-----|----3--|-0-----|-2----|-3----|-------|-0--3--|--2----
B|--|-0----|-----|-------|----1--|------|------|-------|-------|-------

G-|------|-------|-------|-----------|----------------|----------|-9\-7-
D-|------|-------|-------|-----------|----------------|----------|------
A-|------|-0--2--|-------|-----------|------5---5/-7\-|----------|------
E-|-3----|-------|-0--3--|-----------|--------5-------|----------|------
B-|------|-------|-------|---0-------|-0--------------|-0--------|------
		 (1:27)
G|--------------|----------------|---------------|----------------|----
D|--------------|----------------|---------------|----------------|----
A|----5---5/-7\-|----------------|---------------|----------------|----
E|------5-------|----------------|---------------|----------------|----
B|--------------|-0--0--0--0--0--|--0--0--0--0---|-0--0--0--0--0--|--0-

G|---------------------|--------------------------|--------------------
D|---------------------|--------------------------|--------------------
A|---------------------|--------------------------|--------------------
E|-----------------1---|------2--3--------2-------|--------------------
B|--0--0-3-5-0-2-3---2-|---0--------0--5-----0--3-|-5--0--2--3--0--3---

G-|--------------------------|--------------------|--------------------
D-|--------------------------|--------------------|--------------------
A-|--------------------------|--------------------|--------------------
E-|-----2--3--------2--------|---------------1----|------2--3--------2-
B-|--0--------0--5-----0--3--|---5--0--2--3-------|---0--------0--5----

G-------|-----------------------|--------------------------|-----------
D-------|-----------------------|--------------------------|-----------
A-------|-----------------------|--------------------------|-----------
E-------|-----------------------|-----2--3--------2--------|-----------
B--0--3-|-5--0--2--3--0--3------|--0--------0--5-----0--3--|---5--0--2-

G|----------|---------------------------------------------|------------
D|----------|---------------------------------------------|------------
A|----------|---------------------------------------------|------------
E|-----1----|------2--3--------2--------------------------|----2--3----
B|--3-------|---0--------0--5-----0--3--5--0--2--3--0--3--|-0--------0-

G|-------------------------------|--------------------------------------
D|-------------------------------|--------------------------------------
A|-------------------------------|--------------------------------------
E|-----2--------------------1----|------2--3--------2-------------------
B|--5-----0--3--5--0--2--3-------|---0--------0--5-----0--3--5--0--2--3-

G|--------|----------------------------------------|-------11--7--9-----11-
D|--------|----------------------------------------|-----------------9-----
A|--------|----------------------------------------|-----------------------
E|--------|----2--3--------2-------------------1---|-----------------------
B|--0--3--|-0--------0--5-----0--3--5--0--2--3-----|-0--0------------------

G|--7--9--|-------11--7--9-----11--7--9--|---------------|-------------
D|--------|-----------------9------------|---------------|-------------
A|--------|------------------------------|---------------|-----0--2----
E|--------|------------------------------|---------------|-----------0-
B|--------|-0--0-------------------------|-0----0--2--3--|--0----------

G|--------------|---------------|------------------------------|-------
D|--------------|---------------|------------------------------|-------
A|--------------|---------------|-----0--2---------------------|-----0-
E|--2--0--------|---------------|-----------0--2--0-----0--0-2-|-------
B|--------2--3--|-0----0--2--3--|--0-----------------3---------|--0----

G|-----------------------|-----------------------------|----------------
D|-----------------------|-----------------------------|----------------
A|--2--0--2--------0--2--|-----0--2--0--2--------0--2--|-----0--2--0--2-
E|-----------0--2--------|-----------------0--2--------|----------------
B|-----------------------|--0--------------------------|--0-------------

G|--------------|--------------------------------|---------------------
D|--------------|-----------------0--2--0h2p0----|---------------------
A|--------0--2--|-----0--2--0--2--------------2--|------2--0-0-0-2-2-2-
E|--0--2--------|--------------------------------|---------------------
B|--------------|--0-----------------------------|--0------------------

G|-------------------|--------------------------------------|----------
D|----------0--------|--------------------------------------|----------
A|-0--2--------2--0--|-----2--0-0-0-2-2-2-0--2--------------|-----2--0-
E|-------------------|--------------------------------0--2--|----------
B|-------0-----------|--0-----------------------0--3--------|--0-------

G|------------------------------|-------------------------------------|-
D|--------------------0-2-0-----|-------------------------------------|-
A|-0-0-2-2-2-0--2------------2--|-----2--0-0-0-2-2-2-0--2-------------|-
E|------------------------------|--------------------------------0--2-|-
B|-----------------0------------|--0-----------------------0--3-------|-
   (2:48)
G|----------------------------|------------------------------|---------
D|----------------------------|------------------------2-----|---------
A|----------------------------|------------------2--4-----5--|---------
E|---------2-----4--2-2----5--|------4-----4--5--------------|---------
B|---2--2-----2---------2-----|---2-----5--------------------|---2--2--

G|--------------------|------------------------------|-----------------
D|--------------------|------------------------2-----|---------4-----6-
A|--------------------|------------------2--4-----5--|---4--4-----4----
E|-2-----4--2-2----5--|------4-----4--5--------------|-----------------
B|----2---------2-----|---2-----5--------------------|-----------------

G|------------|------------------------------|---------2-----4--2-2----
D|--4-4----7--|------6-----------------2-----|---2--2-----2---------2--
A|------4-----|---4-----7--------2--4-----5--|-------------------------
E|------------|------------4--5--------------|-------------------------
B|------------|------------------------------|-------------------------

G|-5--|------4-----------------------|---------2-----4--2-2----5--|-----
D|----|---2-----5-----------2--5--3--|---2--2-----2---------2-----|---2-
A|----|------------2--3--5-----------|----------------------------|-----
E|----|------------------------------|----------------------------|-----
B|----|------------------------------|----------------------------|-----

G|--4-----------------------|----------------------------|--------------
D|-----5--------------------|----------------------------|--------------
A|--------------------------|---------0-----2--0-0----3--|------2-----2-
E|-----------------0--3--1--|---0--0-----0---------0-----|---0-----3----
B|--------0--1--3-----------|----------------------------|--------------

G|-----------0-----|----------------------------|-----------------------
D|-----0--2-----3--|----------------------------|-----------------------
A|--3--------------|----------------------------|------------------2--4-
E|-----------------|---------2-----4--2-2----5--|------4-----4--5-------
B|-----------------|---2--2-----2---------2-----|---2-----5-------------

G|--------|----------------------------|------------------------------|-
D|--2-----|----------------------------|------------------------2-----|-
A|-----5--|----------------------------|------------------2--4-----5--|-
E|--------|---------2-----4--2-2----5--|------4-----4--5--------------|-
B|--------|---2--2-----2---------2-----|---2-----5--------------------|-

G----------------------------|-----------------------------|---------2-
D---------4-----6--4-4----7--|------6-----------------2----|---2--2----
A---4--4-----4---------4-----|---4-----7--------2--4-----5-|-----------
E----------------------------|------------4--5-------------|-----------
B----------------------------|-----------------------------|-----------

G|-----4--2-2----5--|------4-----------------------|---------2-----4--2-
D|--2---------2-----|---2-----5-----------2--5--3--|---2--2-----2-------
A|------------------|------------2--3--5-----------|--------------------
E|------------------|------------------------------|--------------------
B|------------------|------------------------------|--------------------

G|-2----5--|------4-----------------------|----------------------------
D|---2-----|---2-----5--------------------|----------------------------
A|---------|------------------------------|---------0-----2--0-0----3--
E|---------|---------------------0--3--1--|---0--0-----0---------0-----
B|---------|------------0--1--3-----------|----------------------------

G-|------------------------0-----|-----------|-------------------------
D-|------------------0--2-----3--|-----------|-------------------2-----
A-|------2-----2--3--------------|-----------|-------------2--4-----5--
E-|---0-----3--------------------|-----------|---0---4--5--------------
B-|------------------------------|---2----3--|-------------------------

G-|-----------|-------------------------|-----------|-------------------
D-|-----------|-------------------2-----|-----------|-----------------2-
A-|-----------|-------------2--4-----5--|-----------|-----------2--4----
E-|-----------|-------4--5--------------|-----------|---0---4-----------
B-|---2----3--|---0---------------------|---2----3--|-------------------

G|-----|-----------------5--8--|--7---11--14--13---17--20--|---19----|-
D|-----|-------4--7--6---------|---------------------------|---------|-
A|--6--|---5-------------------|---------------------------|---------|-
E|-----|-----------------------|---------------------------|---------|-
B|-----|-----------------------|---------------------------|---------|-

G|---20-19-17----------------|--------------------------|--------------
D|------------19-18-16-13-12-|---10---------------------|--------------
A|---------------------------|------12----9-------------|--------------
E|---------------------------|---------11---11-9-8------|--------------
B|---------------------------|---------------------10-9-|--7--7-7-7--7-

G|----*|-
D|----*|-
A|----*|-
E|----*|-
B|-7--*|-


 
================================================================================
         Title : A Change of season 2 - The Innocence (3:50 - 6:53)
        Artist : Dream Theater
         Album : A Change of Seasons
================================================================================

Legend
------

 h  = hammer-on
 p  = pull-off
 b  = bend
 r  = bend release
 /  = slide up/down
<5> = natural harmonic
5 = artifical harmonic
 ~  = vibrato
 tr = trill

G-||-------------------|------------------------|-------------------|--
D-||--------------/3---|------------------------|--------------/3---|--
A-||-------------------|--------------5------5--|-------------------|--
E-||--2---2---0--------|--2---2---4-4----3-3----|--2---2---0--------|--
B-||-------------------|------------------------|-------------------|--

G|-----------------------|---------------------------------|-----------
D|-----------------------|---------------------------------|-----------
A|-------------5------5--|---------------------------------|-----------
E|-2---2---4-4----3-3----|-2-2-2-2-2-2-2-2-0-0-0-0-1-1-1-1-|-2-2-2-2-2-
B|-----------------------|---------------------------------|-----------

G|-----------------------|---------------------------------|-----------
D|-----------------------|---------------------------------|-----------
A|-----------5-5-----5-5-|---------------------------------|-----------
E|-2-2-2-4-4-----3-3-----|-2-2-2-2-2-2-2-2-0-0-0-0-1-1-1-1-|-2-2-2-2-2-
B|-----------------------|---------------------------------|-----------

G|------------------|---------------------|------------------|---------
D|------------------|---------------------|------------------|---------
A|------------------|--------------0---2--|---0--2--2---0--2-|-0-------
E|-2-2-2-0-0-0------|---------------------|------------------|-------3-
B|--------------3---|--0--0-0-0-----------|------------------|---------

G|----|--------------|---------------------|--------------------|------
D|----|--------------|---------------------|--------------------|------
A|----|--------------|--------------0---2--|---0--2-0-2---0--2--|-0----
E|----|-0------------|---------------------|--------------------|------
B|----|--------3-----|--0--0-0-0-----------|--------------------|------

G|---------|-------------|---------|-------------|---------------|-----
D|---------|-------------|---------|-------------|---------------|-----
A|---------|-------------|---------|-------------|-0---0----2----|-----
E|---3-----|-0-----------|-2-------|-3------3----|---------------|-0---
B|---------|--------1----|---------|-------------|---------------|-----

G|----------|---------|-------------|-----------------|--------------|-
D|----------|---------|-------------|-----------------|--------------|-
A|----------|---------|-------------|-0---0----2--2---|--------------|-
E|----3-----|-2-------|-3------3----|-----------------|-0------3-----|-
B|----------|---------|-------------|-----------------|--------------|-

G|------------------------|--------------------------------------|-----
D|--4------4------4-------|--5-------5-------5-------5-------5---|-----
A|----4-4----4-4----4-4-4-|----5-5-5---5-5-5---5-5-5---5-5-5---5-|-----
E|------------------------|--------------------------------------|-5---
B|------------------------|--------------------------------------|-----

G|------|--------------------------|-----------|-----------------------
D|------|----------------7-7-9-9---|-----------|--5------5------5------
A|------|------------9-9---------9-|-----------|----5-5----5-5----5-5--
E|------|--7-----7-7---------------|--2--------|-----------------------
B|------|--------------------------|-----------|-----------------------

G|-----------|---------|--------------------|----------------------|---
D|-5------5--|---------|--------------------|----------------------|---
A|---5-5-----|-0-------|--------------------|---------------0---2--|---
E|-----------|---------|-0------1-0---------|----------------------|---
B|-----------|---------|------------3-0-3---|--0-0-0-0-0-----------|---

G|------------------|--------------|-----------------|-----------------
D|------------------|--------------|-----------------|-----------------
A|-0--2-0-2---0--2--|-0------------|-----------------|---------------0-
E|------------------|--------3-----|-0---------------|-----------------
B|------------------|--------------|-------3----1----|--0-0-0-0-0------

G|------|--------------------|--------------|-----------------|--------
D|------|--------------------|--------------|-----------------|--------
A|---2--|---0--2-0-2---0--2--|-0------------|-----------------|--------
E|------|--------------------|--------3-----|-0----------0----|-2---2--
B|------|--------------------|--------------|-------3---------|--------

G|----------|------------------------|------------------|---------------
D|------/3--|------------------------|-------------/3---|---------------
A|----------|------------------------|------------------|-------------5-
E|--0-------|-2----2----4--3-3--3--2-|-2---2---0--------|-2---2---4-4---
B|----------|------------------------|------------------|---------------

G|--------|---------4--------2--|---------4--------2-----------|-------
D|--------|-----4-4----4--------|-----4-4----4--------2--------|-----4-
A|-----5--|---------------------|------------------------------|-------
E|--3-----|--2------------2-----|--2------------2--------2--3--|--2----
B|--------|---------------------|------------------------------|-------

G|---4--------2--|---------4--------2-----------|---------4--------2--|-
D|-4----4--------|-----4-4----4--------2--------|-----4-4----4--------|-
A|---------------|------------------------------|---------------------|-
E|---------2-----|--2------------2--------2--2--|--2------------2-----|-
B|---------------|------------------------------|---------------------|-

G|---------4--------2-----------|---------4--------2--|---------4-------
D|-----4-4----4--------2--------|-----4-4----4--------|-----4-4----4----
A|------------------------------|---------------------|-----------------
E|--2------------2--------2--3--|--2------------2-----|--2------------2-
B|------------------------------|---------------------|-----------------

G|--2-----------|---------4--------2---------|--4--------2-----------|-
D|-----2--------|-----4-4----4-----------4-4-|-----4--------2--------|-
A|--------------|----------------------------|-----------------------|-
E|--------2--2--|--2------------2-----2------|--------2--------2--3--|-
B|--------------|----------------------------|-----------------------|-

G|---------4--------2---------|--4--------2-----------|---------4-------
D|-----4-4----4-----------4-4-|-----4--------2--------|-----4-4----4----
A|----------------------------|-----------------------|-----------------
E|--2------------2-----2------|--------2--------2--2--|--2------------2-
B|----------------------------|-----------------------|-----------------

G|--2---------|--4--------2-----------|---------4--------2---------|--4-
D|--------4-4-|-----4--------2--------|-----4-4----4-----------4-4-|----
A|------------|-----------------------|----------------------------|----
E|-----2------|--------2--------2--3--|--2------------2-----2------|----
B|------------|-----------------------|----------------------------|----

G|--------2-----------|---------4--------2--|---------4--------2-------
D|--4--------2--------|-----4-4----4--------|-----4-4----4--------2----
A|--------------------|---------------------|--------------------------
E|-----2--------2--2--|--2------------2-----|--2------------2--------2-
B|--------------------|---------------------|--------------------------

G|-----|---------4--------2--|---------4--------2-----------|---------4-
D|-----|-----4-4----4--------|-----4-4----4--------2--------|-----4-4---
A|-----|---------------------|------------------------------|-----------
E|--3--|--2------------2-----|--2------------2--------2--2--|--2--------
B|-----|---------------------|------------------------------|-----------

G|--------2--|---------4--------2-----------|---------4--------2--|----
D|--4--------|-----4-4----4--------2--------|-----4-4----4--------|--9-
A|-----------|------------------------------|---------------------|----
E|-----2-----|--2------------2--------2--3--|--2------------2-----|----
B|-----------|------------------------------|---------------------|----

G|-9-6-------------------------|----------|-----------------------------
D|-----7---9-7-----------------|----------|--5------5------5------5-----
A|-------9-----7---9-7---------|----------|----5-5----5-5----5-5----5-5-
E|---------------9-----9-5--4--|--2-------|-----------------------------
B|-----------------------------|----------|-----------------------------

G|-----|----------|----------------2-2-4-4----|----------|-------------
D|--5--|----------|------------4-4---------4--|----------|--5------5---
A|-----|----------|--2-----2-2----------------|----------|----5-5----5-
E|-----|--5-------|---------------------------|--2-------|-------------
B|-----|----------|---------------------------|----------|-------------

G|---------------------|----------|--------------------|---------------
D|----5------5------5--|----------|--------------------|---------------
A|-5----5-5----5-5-----|--0-------|--------------------|---------0---2-
E|---------------------|----------|--0-----1-0---------|---------------
B|---------------------|----------|------------3-0-3---|--0------------

G|--|--------------------|--------------|-----------------|------------
D|--|--------------------|--------------|-----------------|------------
A|--|---0--2-0-2---0--2--|-0------------|-----------------|---------0--
E|--|--------------------|--------3-----|-0---------------|------------
B|--|--------------------|--------------|-------3----1----|--0---------

G|-----|---------------------|-------------|-----------------|---------
D|-----|---------------------|-------------|-----------------|---------
A|--2--|---0--2-0-2---0--2---|-0-----------|------------0----|---------
E|-----|---------------------|--------3----|-0---------------|--0------
B|-----|---------------------|-------------|-------3---------|---------

G|----|------------*|-
D|----|------------*|-
A|----|------------*|-
E|----|--0---------*|-
B|----|------------*|-
================================================================================
         Title : A Change of Season 3 - Carpe Diem (6:54 - 10:07)
        Artist : Dream Teater
         Album : A Change of Seasons
================================================================================

Legend
------

 h  = hammer-on
 p  = pull-off
 b  = bend
 r  = bend release
 /  = slide up/down
<5> = natural harmonic
5 = artifical harmonic
 ~  = vibrato
 tr = trill
				bass sssssss! 
G-||------------|----------|----------|----------|----------|----------
D-||------------|----------|----------|----------|----------|----------
A-||------------|----------|----------|----------|----------|----------
E-||-0----------|----------|----------|----------|----------|----------
B-||------------|----------|----------|----------|----------|----------

'Carpe diem, seize the day'
    I'll always remember
    The chill of November
    The news of the fall
    The sounds in the hall
    The clock on the wall ticking away
    'Seize the Day'
    I heard him say
    Life will not always be this way
    Look around
    Hear the sounds
    Cherish your life while you're still around

   "Gather ye rosebuds while ye may,        Sample is James Waterston from
    Old Time is still a-flying;             the film "Dead Poet's Society"
    And this same flower that smiles today, From the poem "To The Virgins,
    Tomorrow will be dying."                To Make Much Of Time"by Robert
                                            Herrick.                      

    We can learn from the past
    But those days are gone
    We can hope for the future
    But there might not be one... 
    The words stuck in my mind
    alive from what I've learned
    I have to seize the day
    To home I returned
   

    Until			      (9:06)		  bass solo
G|--------|------------|------------|-----------------------------|----
D|--------|------------|------------|-7-9-7-----7-9-10p9-7-9------|--9/
A|--------|------------|------------|-------10--------------------|----
E|--------|------------|------------|-----------------------------|----
B|--------|------------|------------|-----------------------------|----

G|--------------|----------------19--|--19---17/---------|--/21--------
D|--10----------|----------------19--|--19---17/---------|--/21--------
A|--------------|--/-17--------------|-------------------|--------0--0-
E|--------------|--------------------|-------------------|-------------
B|--------------|--------------------|-------------------|-------------

G|------------|--22----------------------|--19------------------|------
D|------------|--------------------------|----------------------|------
A|--0---0--0--|---0---0---0---0---0--0---|------0--0--0---0--0--|------
E|------------|--------------------------|----------------------|-13---
B|------------|--------------------------|----------------------|------

G|------------------------|---------------------------------|-----------
D|------------------------|---------------------------------|-----------
A|------------------------|---------------------------------|-----------
E|--13--13---13---13--13\-|-5-5-5-5-5-5-5-5---5----5-5-5-5--|-5-5-5-5-5-
B|------------------------|---------------------------------|-----------

G|-----------------------|---------------------------------|-----------
D|-----------------------|---------------------------------|-----------
A|-----------------------|---------------------------------|-----------
E|-5-5-5---5----5-5-5-5--|-5-5-5-5-5-5-5-5---5----5-5-5-5--|-5-5-5-5-5-
B|-----------------------|---------------------------------|-----------

G|-----------------------|---------------------------------|-----------
D|-----------------------|---------------------------------|-----------
A|-----------------------|---------------------------------|-----------
E|-5-5-5---5----5-5-5-5--|-5-5-5-5-5-5-5-5---5----5-5-5-5--|-5-5-5-5-5-
B|-----------------------|---------------------------------|-----------

G|-----------------------|---------------------------------|-----------
D|-----------------------|---------------------------------|-----------
A|-----------------------|---------------------------------|-----------
E|-5-5-5---5----5-5-5-5--|-5-5-5-5-5-5-5-5---5----5-5-5-5\-|-1-1-1-1-1-
B|-----------------------|---------------------------------|-----------

G|-------------|--------------------------------------|----------------
D|-------------|-7-X-X-7-X-x-7-X-7--7-5h7-7-7-5h7-7-7-|-7-X-X-7-X-X-7--
A|-------------|--------------------------------------|----------------
E|-1-1-1-------|--------------------------------------|----------------
B|-------------|--------------------------------------|----------------

G|-----------------------|--------------------------------------|-------
D|-7-7-7-5-5---------5-5-|-7-X-X-7-X-X-7-X-7--7-5h7-7-7-5h7-7-7-|-7-X-x-
A|-----------5-5-7-7-----|--------------------------------------|-------
E|-----------------------|--------------------------------------|-------
B|-----------------------|--------------------------------------|-------

G|----------------5-5-----7-7-----|------------------------------------
D|-7-X-X-7-X-7--7-----7-7-----5-5-|-7-X-X-7-X-X-7-X-7--7-5h7-7-7-5h7-7-
A|--------------------------------|------------------------------------
E|--------------------------------|------------------------------------
B|--------------------------------|------------------------------------

G|---|--------------------------------------|--------------------------
D|-7-|-7-X-X-7-X-x-7--7-7-7-5-5---------5-5-|-7-X-X-7-X-X-7-X-7--7-5h7-
A|---|--------------------------5-5-7-7-----|--------------------------
E|---|--------------------------------------|--------------------------
B|---|--------------------------------------|--------------------------

G|-------------|-----------------------------||-*|-
D|-7-7-5h7-7-7-|-----------------------------||-*|-
A|-------------|-----------------------------||-*|-
E|-------------|-1-1-1-1-1-1-1-1---1---1---1-||-*|-
B|-------------|-----------------------------||-*|-

================================================================================
         Title : A Change of Season 4 - The Darkest of Winter (10:08 - 13:00)
         Artist : Dream Theater
         Album : A Change of Seasons
================================================================================

Legend
------

 h  = hammer-on
 p  = pull-off
 b  = bend
 r  = bend release
 /  = slide up/down
<5> = natural harmonic
5 = artifical harmonic
 ~  = vibrato
 tr = trill

G-||-------------------------------|------------------------------|-----
D-||-------------------------------|------------------------------|-----
A-||-------4-3-----4-5-------------|-------4-3-----4-5------------|-----
E-||-2-0-2------2--------3---2-3-5-|-2-0-2------2--------3--2-3-5-|-2-0-
B-||-------------------------------|------------------------------|-----

G|---------------------------|------------------------------|----------
D|---------------------------|------------------------------|------6-5-
A|---4-3------4-5------------|-------4-3-----4-5------------|-4--4-----
E|-2------2---------3--2-3-5-|-2-0-2------2--------3--2-3-5-|----------
B|---------------------------|------------------------------|----------

G|--------------------|----------------4------------|--------4-----4-6-
D|-----6-7------4-2---|------6-7-----7--------7-6-4-|------7-----------
A|--4--------5------5-|-4--4------4--------5--------|-4--4------4------
E|--------------------|-----------------------------|------------------
B|--------------------|-----------------------------|------------------

G|------4-2-1-|------4-6-----6-7----|--------------|-----------|-------
D|------------|---------------------|--4---2---0---|--4--2--0--|-------
A|---5--------|-4--4------4---------|--------------|-----------|--4--4-
E|------------|---------------------|--------------|-----------|-------
B|------------|---------------------|--------------|-----------|-------

G|--------|--------------|--------------|--------------|--------------|-
D|--------|--------------|--------------|--------------|--------------|-
A|--4--4--|--4--4--4--4--|--4--4--4--4--|--4--4--4--4--|--4--4--4--4--|-
E|--------|--------------|--------------|--------------|--------------|-
B|--------|--------------|--------------|--------------|--------------|-
						             (10:41)
G--------------|--------------|--------------|-----|-------|-----------
D--------------|--------------|--------------|-----|-------|-----------
A--4--4--4--4--|--4--4--4--4--|--------------|-----|-------|-----------
E--------------|--------------|--0--0--0--0--|-----|---/7\-|--2--2--2--
B--------------|--------------|--------------|-----|-------|-----------

G|------------------|-----------------------|--------------------------
D|------------------|-----------------------|------------------------4-
A|------------------|--2-----1--------------|---------------------2----
E|-2--3-2-0--2--3---|-----3-----2--3--2--0--|--2--2--2--2--3-2-0-------
B|------------------|-----------------------|--------------------------

G|--|--------------------------|----------------------------|----------
D|--|-----3--0--2--------------|----------------------------|----------
A|--|--2-----------4--0--------|----------------------------|--2-----1-
E|--|--------------------4--3--|--2--2--2--2--3-2-0--2--3---|-----3----
B|--|--------------------------|----------------------------|----------

G|--------------|---------------------------|--------------------------
D|--------------|---------------------------|--------------------------
A|--------------|------------------------4--|-----5--4--2--0-----------
E|--2--3--2--0--|--2--2--2--2--3-2-0--2-----|--2--------------4--3--2--
B|--------------|---------------------------|--------------------------

G-|--------------------------|--------------------------|--------------
D-|--------------------------|-----5--------------------|--------------
A-|--------------7--5-----5--|--7-----7--5--------------|--7--7--7--7--
E-|--0--0--0--0--------7-----|--------------7--6--5--3--|--------------
B-|--------------------------|--------------------------|--------------

G|-------------|--------------------------|--------------------------|-
D|-------------|--------------------------|--------------------------|-
A|-7--5-----5--|--4-----4--2-----------5--|--7--7--7--7--7--5-----5--|-
E|-------7-----|-----5--------3--0--7-----|--------------------7-----|-
B|-------------|--------------------------|--------------------------|-

G--------------------------|--------------------------|----------------
D-----5--------------------|--------------------------|----------------
A--7-----7--5--------------|--7--7--7--7--7--5-----5--|----------------
E--------------7--6--5--3--|--------------------7-----|---6---5---3----
B--------------------------|--------------------------|----------------

G-|----------------------------|-----------------------|----------------
D-|----------------------------|-----------------------|----------------
A-|----------------------------|--2-----1--------------|----------------
E-|--2--2--2--2--3-2-0--2--3---|-----3-----2--3--2--0--|--2--2--2--2--3-
B-|----------------------------|-----------------------|----------------

G|------------|--------------------------|----------------------------|-
D|---------4--|-----3-----2--------------|----------------------------|-
A|------2-----|--2-----5-----4-----------|----------------------------|-
E|-2-0--------|-----------------5--4--3--|--2--2--2--2--3-2-0--2--3---|-
B|------------|--------------------------|----------------------------|-

G--------------------|---------------------------|-----------4--5-------
D--------------------|------------------------4--|--5-------------------
A--2----0-1-0--------|---------------------2-----|-----0--1--------4--5-
E--------------2--0--|--2--2--2--2--3-2-0--------|----------------------
B--------------------|---------------------------|----------------------

G-----|--------------------------|--------------------------|----------
D-----|--------------------------|-----5--------------------|----------
A--6--|--7--7--7--7--7--5-----5--|--7-----7--5--------------|--7--7--7-
E-----|--------------------7-----|--------------7--6--5--3--|----------
B-----|--------------------------|--------------------------|----------

G|-----------------|--------------------------|-------------------------
D|-----------------|--------------------------|-------------------------
A|--7--7--5-----5--|--4-----4--2-----------5--|--7--7--7--7--7--5-----5-
E|-----------7-----|-----5--------3--0--7-----|--------------------7----
B|-----------------|--------------------------|-------------------------

G|--|--------------------------|--------------------------|------------
D|--|-----5--------------------|--------------------------|------------
A|--|--7-----7--5--------------|--7--7--7--7--7--5-----5--|------------
E|--|--------------7--6--5--3--|--------------------7-----|--6---5---3-
B|--|--------------------------|--------------------------|------------

G|----|----------------------------|-----------------------|-----------
D|----|----------------------------|-----------------------|-----------
A|----|----------------------------|--2-----1--------------|-----------
E|----|--2--2--2--2--3-2-0--2--3---|-----3-----2--3--2--0--|--2--2--2--
B|----|----------------------------|-----------------------|-----------

G|-----------------|--------------------------|------------------------
D|--------------4--|-----3--------------------|------------------------
A|-----------2-----|--2-----0--------5--4--2--|------------------------
E|-2--3-2-0--------|-----------3--2-----------|--2--2--2--2--3-2-0--2--
B|-----------------|--------------------------|------------------------

G|-----|-----------------------|-----------------------------|----------
D|-----|-----------------------|--------<4>---------------4--|-----3--0-
A|-----|--2-----1--------------|-----------------------2-----|--2-------
E|-3---|-----3-----2--3--2--0--|--2--2-------2--3-2-0--------|----------
B|-----|-----------------------|-----------------------------|----------

G|---------|----------------------------|-----------------------|-------
D|---0-----|----------------------------|-----------------------|-------
A|---------|----------------------------|--2-----1--------------|-------
E|---------|--2--2--2--2--3-2-0--2--3---|-----3-----2--3--2--0--|--2--2-
B|---------|----------------------------|-----------------------|-------

G|---------------------|--------------------------|--------------------
D|---------------------|-----4--------------------|--------------------
A|---------------2--5--|--2-----2--------5--4--2--|--------------------
E|--2--2--3-2-0--------|-----------3--2-----------|--2--2--2--2--3-2-0-
B|---------------------|--------------------------|--------------------

G|---------|-----------------------|---------------------------|-------
D|---------|-----------------------|------------------------4--|-----3-
A|---------|--2-----1--------------|---------------------2-----|-------
E|--2--3---|-----3-----2--3--2--0--|--2--2--2--2--3-2-0--------|--2----
B|---------|-----------------------|---------------------------|-------

G|----------------------|----------------------------|-----------------
D|--0---0-0-0-0-0-0-0-0-|----------------------------|-----------------
A|----------------------|----------------------------|--2-----1--------
E|----------------------|--2--2--2--2--3-2-0--2--3---|-----3-----2--3--
B|----------------------|----------------------------|-----------------

G|-------|---------------------------|--------------------------|-------
D|-------|------------------------4--|-----3--------------------|-------
A|-------|---------------------2-----|--2-----0--------5--4--2--|-------
E|-2--0--|--2--2--2--2--3-2-0--------|-----------3--2-----------|--2--2-
B|-------|---------------------------|--------------------------|-------

G|----------------------|-----------------------|-----------------------
D|----------------------|-----------------------|-----------------------
A|----------------------|--2-----1--------------|---------------------2-
E|--2--2--3-2-0--2--3---|-----3-----2--3--2--0--|--2--2--2--2--3-2-0----
B|----------------------|-----------------------|-----------------------

G|-----|----------------|------------------------|---------------------
D|--4--|-----3--0-------|------------------------|---------------------
A|-----|--2-------------|--2h-4--4--4--4---4--4--|--2h-4--4-4---5--5---
E|-----|----------------|------------------------|---------------------
B|-----|----------------|------------------------|---------------------

G-|---------------------|---------------------|------------------------
D-|---------------------|---------------------|------------------------
A-|--2h-4--4--4---4--4--|--0h-2--2--2---------|--2h-4--4--4--4---4--4--
E-|---------------------|----------------2----|------------------------
B-|---------------------|---------------------|------------------------
						                 good luck!(12:49)
G-|----------------------|---------------------|--------------------|-6-
D-|----------------------|---------------------|--------------------|---
A-|--2h-4--4--4---5--5---|--2h-4--4--4---4--4--|--0h-2--2--2--------|---
E-|----------------------|---------------------|---------------2----|---
B-|----------------------|---------------------|--------------------|---

G|-7-6-4-----------4-----------4-|-6-7-6-4-----------4-----------4-|-6-
D|-------7-6-4-6-7---7-6-4-6-7---|---------7-6-4-6-7---7-6-4-6-7---|---
A|-------------------------------|---------------------------------|---
E|-------------------------------|---------------------------------|---
B|-------------------------------|---------------------------------|---

G|-7-6-4-----------4-----------4-|-6-7-6-4-----------4-6-7-------4-|-6-
D|-------7-6-4-6-7---7-6-4-6-7---|---------7-6-4-6-7-------4-6-7---|---
A|-------------------------------|---------------------------------|---
E|-------------------------------|---------------------------------|---
B|-------------------------------|---------------------------------|---

G|-7-6-4-----------4-----------4-|-6-7-6-4-----------4-----------4-|-6-
D|-------7-6-4-6-7---7-6-4-6-7---|---------7-6-4-6-7---7-6-4-6-7---|---
A|-------------------------------|---------------------------------|---
E|-------------------------------|---------------------------------|---
B|-------------------------------|---------------------------------|---

G|-7-8-9-------------------------------|--------------------6-7-8-9-----
D|-------7-8-9-10----------------------|-7-8-9-10-------------------7-8-
A|----------------8-9-10-11------------|----------8-9-10-11-------------
E|--------------------------9-10-11-12-|--------------------------------
B|-------------------------------------|--------------------------------

G|------|--------|-------|-------|-------|-----16----------14----------
D|-9-10-|-11-----|-9-----|-7-----|-9-----|-14------14--12------12--14--
A|------|--------|-------|-------|-------|-----------------------------
E|------|--------|-------|-------|-------|-----------------------------
B|------|--------|-------|-------|-------|-----------------------------

G|-16------|----------16--19-----|-----------|-----------|----------|--
D|-----14--|------14-------------|-----------|-----------|----------|--
A|---------|--14-----------------|--4----2---|-----------|----------|--
E|---------|---------------------|-----------|--2----5---|-------3--|--
B|---------|---------------------|-----------|-----------|--5-------|--
  (sss)								   (ssss)
G|--|---|--4----4---|--2----2--|--------------------------|-----|------
D|--|---|-----------|----------|-----------------0--------|-----|------
A|--|---|-----------|----------|-----2--5-----4--------0--|-----|------
E|--|---|-----------|----------|--3--------1--------0-----|-----|------
B|--|---|-----------|----------|--------------------------|-----|------

G|---|-------|-------|--------|--------|----------|---------*|-
D|---|-------|-------|--------|--7-----|----------|---------*|-
A|---|-------|--7----|--3-----|--------|--5-------|--6------*|-
E|---|--3----|-------|--------|--------|----------|---------*|-
B|---|-------|-------|--------|--------|----------|---------*|-



================================================================================
         Title : A Change of Season 5 - Another World (13:01 - 16:58)
        Artist : Dream Theater
         Album : A Change of Seasons
================================================================================

Legend
------

 h  = hammer-on
 p  = pull-off
 b  = bend
 r  = bend release
 /  = slide up/down
<5> = natural harmonic
5 = artifical harmonic
 ~  = vibrato
 tr = trill

G-||-----------------|-----------------|-----------------|-------------
D-||-----------------|-----------------|-----------------|-------------
A-||-----------------|-----------------|-----------------|------5------
E-||--0----0-0--0----|-----------------|-----------------|-------------
B-||-----------------|--1----1-1--1----|--0----0-0--0----|--3------3-3-

G|---------|--------------------------------|---------------------|----
D|---------|------2-------------------------|---------------------|----
A|-----5---|--------------------------------|---------------------|----
E|---------|--0-------0-0-0-0-0-0-0-0-0-0-0-|---------------------|----
B|--3------|--------------------------------|--1----1-1--1--1--1--|--0-
							Bass ssssss
G|--------------|---------------------|------------|----------|--------
D|--------------|---------------------|------------|----------|--------
A|--------------|------5----------5---|------------|----------|--------
E|--------------|---------------------|--0---------|----------|--------
B|----0-0--0----|--3------3-3--3------|------------|----------|--------
					         until (13:48) n.harmonics..... 
G|---|----------|----------|----------|----------|----------|----------
D|---|----------|----------|----------|----------|----------|----------
A|---|----------|----------|----------|----------|----------|----------
E|---|----------|----------|----------|----------|----------|--0-------
B|---|----------|----------|----------|----------|----------|----------
.........................................................................
G|---|------------|------------|------------|------------|------------|-
D|---|------------|------------|--0---------|------------|------------|-
A|---|--3---------|--2---------|------------|------------|--3---------|-
E|---|------------|------------|------------|--0---------|------------|-
B|---|------------|------------|------------|------------|------------|-
........................|
G|------------|------------|------------|------------|------------|----
D|------------|--0---------|------------|------------|------------|----
A|--2---------|------------|--4---------|--0---------|------------|----
E|------------|------------|------------|------------|--2---------|--4-
B|------------|------------|------------|------------|------------|----

G|---------|------------|------------|------------|------------|-------
D|---------|------------|------------|------------|------------|-------
A|---------|--4---------|--0---------|------------|------------|-------
E|---------|------------|------------|--2---------|------------|--0----
B|---------|------------|------------|------------|--0---------|-------

G|----------|-----------------|----------------|-----------------|-----
D|----------|-----------------|----------------|-----------------|-----
A|----------|-----------------|----------------|-----------------|-----
E|--0--0----|-----------------|----------------|-----------------|--0--
B|----------|--1----1-1--1----|--0-----0--0----|--3----3-3--3----|-----

G|------------|-----------------|----------------|------------|--------
D|------------|-----------------|----------------|------------|--2-----
A|------------|-----------------|----------------|------------|--------
E|----0--0----|-----------------|----------------|------------|----0---
B|------------|--1----1-1--1----|--0-----0--0----|--3---------|--------

G|---------|-------------|---------------|-----------9\--|--------------
D|---------|-------------|---------------|---------------|--------------
A|-----0-2-|--3-3--------|--2--------0-3-|--5-5----------|--7---------0-
E|---------|-------------|---------------|---------------|----0---------
B|---------|-------------|---------------|---------------|--------------

G|---|-------------|------------|-----------------------------------|--
D|---|-------------|------------|--0-0-0-0-0-0-0-0-0-0-0-0-0--------|--
A|-2-|--3-3--------|--2---------|-----------------------------------|--
E|---|-------------|------------|-----------------------------3--2--|--
B|---|-------------|------------|-----------------------------------|--

G|---------------|-----------------|----------------|-----------------|-
D|---------------|-----------------|----------------|-----------------|-
A|---------------|-----------------|----------------|-----------------|-
E|-0-----0--0----|-----------------|----------------|-----------------|-
B|---------------|--1----1-1--1----|--0-----0--0----|--3----3-3--3----|-

G|----------------|-----------------|----------------|----------------|-
D|----------------|-----------------|----------------|----------------|-
A|----------------|-----------------|----------------|----------------|-
E|--0-----0--0----|-----------------|----------------|----------------|-
B|----------------|--1----1-1--1----|--0-----0--0----|--3----3-3--3---|-

G|------------------------------|-----------------------------|---------
D|------------------------------|-----------------------------|---------
A|-4--4-4-4--4-4-4--4-4-4--4-4--|-0--0-0-0--0-0-0--0-0-0--0-0-|-------4-
E|------------------------------|-----------------------------|-2-2-2---
B|------------------------------|-----------------------------|---------

G|------------------------|------------------------------|--------------
D|------------------------|------------------------------|--------------
A|---------------4--------|------------------------------|--4--4-4-4--4-
E|-2-2-2-2-2-2-2---2-2-2--|--4--4-4-4--4-4-4--4-4-4--4-4-|--------------
B|------------------------|------------------------------|--------------

G|-----------------|------------------------------|---------------------
D|-----------------|------------------------------|---------------------
A|-4-4--4-4-4--4-4-|--0--0-0-0--0-0-0--0-0-0--0-0-|---------4-----------
E|-----------------|------------------------------|--2--2-2---2-2-2-2-2-
B|-----------------|------------------------------|---------------------

G|-------------|-----------------------------|----------------|---------
D|-------------|-----------------------------|----------------|---------
A|-----4-------|--2--2-2-2--2-2-2--2-2-------|----------------|---------
E|-2-2---2-2-2-|-----------------------3--2--|--0-----0--0----|---------
B|-------------|-----------------------------|----------------|--1----1-

G|---------|----------------|-----------------|----------------|-------
D|---------|----------------|-----------------|----------------|-------
A|---------|----------------|-----------------|----------------|-------
E|---------|----------------|-----------------|--0-----0--0----|-------
B|-1--1----|--0-----0--0----|--3----3-3--3----|----------------|--1----

G|-----------|----------------|-----------------|---------------||-*|-
D|-----------|----------------|-----------------|---------------||-*|-
A|-----------|----------------|-----------------|---------------||-*|-
E|-----------|----------------|-----------------|-----0-----0---||-*|-
B|-1-1--1----|--0-----0--0----|--3----3-3--3----|--3-----3------||-*|-

================================================================================
         Title : A Change of Season 6 - The Inevitable Summer (16:59 - 20:11)
        Artist : Dream Theater
         Album : A Change of Seasons
================================================================================

Legend
------

 h  = hammer-on
 p  = pull-off
 b  = bend
 r  = bend release
 /  = slide up/down
<5> = natural harmonic
5 = artifical harmonic
 ~  = vibrato
 tr = trill

G-||--------11---7--9-------11---7--9---|------------------|--------11-
D-||--------------------7---------------|------------------|-----------
A-||------------------------------------|------------------|-----------
E-||------------------------------------|------------------|-----------
B-||--0--0------------------------------|--0---------------|--0--0-----

G|---7--9-------11---7--9---|------------------|--------11---7--9------
D|----------7---------------|------------------|--------------------7--
A|--------------------------|------------------|-----------------------
E|--------------------------|------------------|-----------------------
B|--------------------------|--0---------------|--0--0-----------------

G|--11---7--9---|------------------|--------11---7--9-------11---7--9--
D|--------------|------------------|--------------------7--------------
A|--------------|------------------|-----------------------------------
E|--------------|------------------|-----------------------------------
B|--------------|--0---------------|--0--0-----------------------------

G|--|------------------|------------------------------|-----------------
D|--|------------------|------------------------------|-----------------
A|--|------------------|----------------------5-------|-----------------
E|--|------------------|-------------------7------7\--|-----------------
B|--|--0---------------|--0--0------0--0--------------|--0--0------0--0-

G|--------------|------------------------------|------------------------
D|--------------|------------------------------|------------------------
A|------5-------|----------------------5-------|----------------------5-
E|---7------7\--|-------------------7------7\--|-------------------7----
B|--------------|--0--0------0--0--------------|--0--0------0--0--------

G|-----------|-----------------------------------|---------------------
D|-----4-----|----------------------------4------|---------------------
A|--7-----5--|-----5---------5------5--7----7-5--|-----5---------5-----
E|-----------|--7---------7------7---------------|--7---------7------7-
B|-----------|-----------------------------------|---------------------

G|--------------|---------------------------------|---------------------
D|--------4--7--|---------------------------------|---------------------
A|--5--7--------|---------------------------------|---------------------
E|--------------|--3---3---3--3-3--3---3---3---3--|--3---3---3--3-3-3-3-
B|--------------|---------------------------------|---------------------

G|--------------|------------------------------------|------------------
D|--------------|------------------------------------|------------------
A|--------------|--0--2---0--2---0--2---0--2---2--0--|--0--2---0--2---0-
E|---3---3---3--|------------------------------------|------------------
B|--------------|------------------------------------|------------------

G|---------------------|--------------------------------------|--------
D|------------0--------|-----------------------------------0--|--------
A|--2---0--2-----2--0--|--0--2---0--2---0--2---0--2--0--4-----|--0--2--
E|---------------------|--------------------------------------|--------
B|---------------------|--------------------------------------|--------

G|-----------------------------|--------------------------------------|-
D|-----------------------------|-----------------------------0--------|-
A|--0--2---0--2---0--2--0--2---|--0--2---0--2---0--2---0--2-----2--0--|-
E|-----------------------------|--------------------------------------|-
B|-----------------------------|--------------------------------------|-

G|--------------------------------------|------------------------------
D|-----------------------------------0--|------------------------------
A|--0--2---0--2---0--2---0--2--0--2-----|------------------------------
E|--------------------------------------|--3---3---3--3-3--3---3---3---
B|--------------------------------------|------------------------------

G|----|----------------------------------|------------------------|----
D|----|----------------------------------|---------------0--------|----
A|----|----------------------------------|-----------2------2--0--|----
E|-3--|--3---3---3--3-3-3-3---3---3---3--|------------------------|----
B|----|----------------------------------|------------------------|--0-

G|------------------------------------|--------------------------------
D|------------------------------------|------------------------------0-
A|---2---0-0-0-2-2-2-0---2------------|------2---0-0-0-2-2-2-0---2-----
E|------------------------------0--2--|--------------------------------
B|---------------------------0--------|--0-----------------------------

G|-----------|---------------------------------------|------------------
D|-2-0-------|---------------------------------------|------------------
A|------2----|----2---0-0-0-2-2-2-0---2--------------|------2---0-0-0-2-
E|-----------|------------------------------------0--|------------------
B|---------0-|---------------------------0--3--4-----|--0---------------

G|----------------------|-----------------------------------------|----
D|-------------0--------|-----------------------------------------|----
A|-2-2-0---2------2--0--|------2---0-0-0-2-2-2-0---2--------------|----
E|----------------------|--------------------------------0--1--2--|--3-
B|----------------------|--0--------------------------0-----------|----

G|------------------------------|----------------------------------|----
D|------------------------------|----------------------------------|----
A|------------------------------|----------------------------------|--2-
E|---3---3--3-3--3---3---3---3--|--3---3---3--3-3-3-3---3---3---3--|----
B|------------------------------|----------------------------------|----

G|---------|-----------|------------|--------------------------|-------
D|----3----|--2----5---|-------4----|--3-----6-----4--2--------|-------
A|---------|-----------|--3---------|--------------------4--2--|-------
E|---------|-----------|------------|--------------------------|-------
B|---------|-----------|------------|--------------------------|--0h2--

G|-----------------------|------------------------------|--------------
D|-----------------------|------------------------------|--------------
A|-----------------------|------------------------------|--------------
E|-----------------------|----------------------2p0-----|--------------
B|-2--2-0h2--2--2-0h2--2-|--2-0h2-2-2-0h2--2--2-----2h0-|--0h2--2--2-0h

G|----------------|------------------------------|----------------------
D|----------------|------------------------------|----------------------
A|----------------|------------------------------|----------------------
E|----------------|----------------------2p0-----|----------------------
B|-2--2--2-0h2--2-|--2-0h2-2-2-0h2--2--2-----2h0-|--0h2--2--2-0h2--2--2-

G|---------|------------|-----------------------------|----------------
D|---------|------------|-----------------------------|----------------
A|---------|------------|-----------------------------|----------------
E|---------|------------|-----------------------------|----------------
B|-0h2-2-2-|--2---------|--0h2--2--2-0h2--2--2-0h2--2-|--2-0h2-2-2-0h2-

G|---------------|-----------------------------|---------------------|-
D|---------------|-----------------------------|---------------------|-
A|---------------|-----------------------------|---------------------|-
E|-------2p0-----|-----------------------------|---------------------|-
B|--2--2-----2p0-|--0h2--2--2-0h2--2--2-0h2--2-|--/9/--/10---\7---5--|-

G|-----------------------------|------------------------------|---------
D|-----------------------------|------------------------------|---------
A|-----------------------------|------------------------------|---------
E|-----------------------------|----------------------2p0-----|---------
B|--0h2--2--2-0h2--2--2-0h2--2-|--2-0h2-2-2-0h2--2--2-----2p0-|--0h2--2-

G|---------------------|---------------------|--------------------------
D|---------------------|---------------------|--------------------------
A|---------------------|---------------------|--------------------------
E|---------------------|---------------------|--------------------------
B|--2-0h2--2--2-0h2--2-|--/9/--/10---\7---5--|--3h5--5--5-3h5--5--5-3h5-

G|----|------------------------------|-----------------------------|----
D|----|------------------------------|-----------------------------|----
A|----|------------------------------|-----------------------------|----
E|----|----------------------5p3-----|-----------------------------|----
B|--5-|--5-3h5-5-5-3h5--5--5-----5p3-|--3h5--5--5-3h5--5--5-3h5--5-|--5-

G|---------------------------|-----------------------------|------------
D|---------------------------|-----------------------------|------------
A|---------------------------|-----------------------------|------------
E|-------------------5p3-----|-----------------------------|------------
B|-3h5-5-5-3h5--5--5-----5p3-|--0h2--2--2-0h2--2--2-0h2--2-|--2-0h2-2-2-

G|-------------------|-----------------------------|--------------------
D|-------------------|-----------------------------|--------------------
A|-------------------|-----------------------------|--------------------
E|-----------2p0-----|-----------------------------|--------------------
B|-0h2--2--2-----2p0-|--0h2--2--2-0h2--2--2-0h2--2-|--/9/--/10---\7\--5-

G--|--------------------|-----------------|--------------------|--------
D--|------2---4--4-2----|------4-------4--|------2---4--4-2----|------2-
A--|--4--------------4--|--2-------2------|--4--------------4--|--0-----
E--|--------------------|-----------------|--------------------|--------
B--|--------------------|-----------------|--------------------|--------

G|---4------|--------------------|-----------------|-------------------
D|-------2--|------2---4--4-2----|------4-------4--|------2---4--4-2---
A|----------|--4--------------4--|--2-------2------|--4--------------4-
E|----------|--------------------|-----------------|-------------------
B|----------|--------------------|-----------------|-------------------

G|--|----------4------|--------------------|-----------------|---------
D|--|------2-------2--|------2---4--4-2----|------4-------4--|------2--
A|--|--0--------------|--4--------------4--|--2-------2------|--4------
E|--|-----------------|--------------------|-----------------|---------
B|--|-----------------|--------------------|-----------------|---------

G|------------|----------4------|--------------------|-----------------
D|--4--4-2----|------2-------2--|------2---4--4-2----|------4-------4--
A|---------4--|--0--------------|--4--------------4--|--2-------2------
E|------------|-----------------|--------------------|-----------------
B|------------|-----------------|--------------------|-----------------

G-|--------------------|----------4------|--------------------|--------
D-|------2---4--4-2----|------2-------2--|------2---4--4-2----|------4-
A-|--4--------------4--|--0--------------|--4--------------4--|--2-----
E-|--------------------|-----------------|--------------------|--------
B-|--------------------|-----------------|--------------------|--------

G|----------|--------------------|----------4------|-------------------
D|-------4--|------2---4--4-2----|------2-------2--|-------------------
A|---2------|--4--------------4--|--0--------------|-------------------
E|----------|--------------------|-----------------|-----4--5-----2--4-
B|----------|--------------------|-----------------|--2--------2-------

G|--------------------------|------------------------------------------
D|--------------------------|------------------------------------------
A|--------------------------|------------------------------------------
E|-----0--2-----------------|-----4--5-----2--4-----0--2-----------3---
B|--2--------2--4--5--2--5--|--2--------2--------2--------2--4--5------

G-|--------------------------------------------|--------------------|--
D-|--------------------------------------------|--------------------|--
A-|--------------------------------------------|--------------------|--
E-|-----2--3--------2--------------------------|-----------2--5--4--|--
B-|--0--------0--5-----0--3--5--0--2--3--0--3--|--0--4--3-----------|--

G|-------------------|--/16----14----|--14----12----|--11----14----|-----
D|----------4--7--6--|---------------|--------------|--------------|--14-
A|-3--6--5-----------|---------------|--------------|--------------|-----
E|-------------------|---------------|--------------|--------------|-----
B|-------------------|---------------|--------------|--------------|-----

G|------------||-*|-
D|-----14-----||-*|-
A|------------||-*|-
E|------------||-*|-
B|------------||-*|-
================================================================================
         Title : A Change of Season 7 - The Crimson Sunset (20:12 - end)
        Artist : Dream Theater
         Album : A Change of Seasons
================================================================================

Legend
------

 h  = hammer-on
 p  = pull-off
 b  = bend
 r  = bend release
 /  = slide up/down
<5> = natural harmonic
5 = artifical harmonic
 ~  = vibrato
 tr = trill

G-||--------------------------------------|----------------------------
D-||--------------------------------------|----------------------------
A-||--4--4--4--4--4--4--4--4--4--4--4--4--|----------------------------
E-||--------------------------------------|--2--2--2--2--2--2--2--2--2-
B-||--------------------------------------|----------------------------

G|-----------|--------------------------------------|-------------------
D|-----------|--------------------------------------|-------------------
A|-----------|--------------------------------------|--2--2--2--2--2--2-
E|--2--2--2--|--0--0--0--0--0--0--0--0--0--0--0--0--|-------------------
B|-----------|--------------------------------------|-------------------

G|--------------------|--------------------------------------|----------
D|--------------------|--------------------------------------|----------
A|--2--2--2--2--2--2--|--4--4--4--4--4--4--4--4--4--4--4--4--|----------
E|--------------------|--------------------------------------|--2--2--2-
B|--------------------|--------------------------------------|----------

G|-----------------------------|--------------------------------------|-
D|-----------------------------|--------------------------------------|-
A|-----------------------------|--2--2--2--2--2--2--2--2--2--2--2--2--|-
E|--2--2--2--2--2--2--2--2--2--|--------------------------------------|-
B|-----------------------------|--------------------------------------|-

G|--------------------------------------|-------------------------------
D|--------------------------------------|-------------------------------
A|--------------------------------------|--4--4--4--4--4--4--4--4--4--4-
E|--4--4--4--4--4--4--4--4--4--4--4--4--|-------------------------------
B|--------------------------------------|-------------------------------

G|--------|--------------------------------------|----------------------
D|--------|--------------------------------------|----------------------
A|--4--4--|--------------------------------------|----------------------
E|--------|--0--0--0--0--0--0--0--0--0--0--0--0--|--3--3--3--3--3--3--3-
B|--------|--------------------------------------|----------------------

G|-----------------|--------------------------------------|------------
D|-----------------|--0--0--0--0--0--0--0--0--0--0--0--0--|------------
A|-----------------|--------------------------------------|------------
E|--3--3--3--3--3--|--------------------------------------|------------
B|-----------------|--------------------------------------|--2--2--2---

G|------------------|------------------------------------|--------------
D|------------------|------------------------------------|--------------
A|------------4-----|------------------------------------|--------------
E|------------------|------------------------2--0--------|--------------
B|-2--2--0--2----0--|--2--2--2---2--2--0--2--------2--0--|--2--2--2---2-

G|---------------------|----------------------------------|------------
D|---------------------|----------------------------------|------------
A|---------------------|----------------------------------|------------
E|---------------------|----------------------5-----7--5--|------------
B|--2--0--2--5---2--0--|---0--0---0--0--5--7-----7--------|--2--2--2---

G|-------------------|------------------------------------|------------
D|-------------------|------------------------------------|------------
A|------------4------|------------------------------------|------------
E|-------------------|------------------------2--0--------|------------
B|-2--2--0--2-----0--|--2--2--2---2--2--0--2--------2--0--|---0--0---0-

G|---------------------|---------------------------|-------------------
D|---------------------|---------------------------|-------------------
A|---------------------|---------------------------|-------------------
E|---------------------|--4----4-------0--2--0-----|-------------------
B|--0--0--0--0---0--0--|-----4------4-----------4--|--2--2--2--2--2--2-

G|--------------------|--------------------------------------|----------
D|--------------------|--------------------------------------|----------
A|--------------------|--------------------------------------|----------
E|--------------------|--0--0--0--0--0--0--0--0--0--0--0--0--|--3--3--3-
B|--2--2--2--2--2--2--|--------------------------------------|----------

G|-----------------------------|--------------------------------------|-
D|-----------------------------|--0--0-----------------------------6--|-
A|-----------------------------|--5--5--5--5--5--5--5--5--5--5--5-----|-
E|--3--3--3--3--3--3--3--3--3--|--------------------------------------|-
B|-----------------------------|--------------------------------------|-

G|-----11-----9-----8--------------------|--------------------------|--
D|--7------7-----7-----9--7--6-----------|--------------------------|--
A|------------------------------9--7--6--|--4-----------4--7--6--4--|--
E|---------------------------------------|--------4--5--------------|--
B|---------------------------------------|--------------------------|--

G|--------------------------|-------------------------|-----------------
D|-----------7-----5-----4--|-------------------------|------7--------6-
A|-----5--------------------|--4----------4--7--6--4--|--3------3--3----
E|-3------3-----3-----3-----|--------4--5-------------|-----------------
B|--------------------------|-------------------------|-----------------

G|---|------------------|------------------|------------------|--------
D|---|------------------|------------------|------------------|--0-----
A|---|--2-------0-------|------------------|--2-------4-------|--------
E|---|------------------|--2-------3-------|------------------|--------
B|---|------------------|------------------|------------------|--------

G|-----------|-------------------------------------|-------------------
D|---2-------|-------------------------------------|-------------------
A|-----------|--2--2-2-2--2---0-0-0---2--2-2-2--0--|-------------------
E|-----------|-------------------------------------|--2--2-2-2--2---2--
B|-----------|-------------------------------------|-------------------

G|----------------|-------------------------------------|--------------
D|----------------|-------------------------------------|--------------
A|------------0---|--2--2-2-2--2---0-0-0---2--2-2-2--0--|--------------
E|-3--3-3-3-------|-------------------------------------|--2--2-2-2--2-
B|----------------|-------------------------------------|--------------

G|---------------------|-------------------------------------|---------
D|---------------------|-------------------------------------|---------
A|-----------------0---|--2--2-2-2--2---0-0-0---2--2-2-2--0--|---------
E|---2--3--3-3-3-------|-------------------------------------|--2--2-2-
B|---------------------|-------------------------------------|---------

G|--------------------------|-------------------------------------|----
D|--------------------------|-------------------------------------|----
A|----------------------0---|--2--2-2-2--2---0-0-0---2--2-2-2--0--|----
E|-2--2---2--3--3-3-3-------|-------------------------------------|--2-
B|--------------------------|-------------------------------------|----

G|-------------------------------|-------------------------------------
D|-------------------------------|-------------------------------------
A|---------------------------0---|--2--2-2-2--2--2--2--0---0--0--0--0--
E|--2-2-2--2---2--3--3-3-3-------|-------------------------------------
B|-------------------------------|-------------------------------------

G-|----------------------------------|---------------------------------
D-|----------------------------------|---------------------------------
A-|----------------------------0--0--|--2---2--2--2--2--4---4--4--4--4-
E-|--2---2--2--2--2--3---3--3--------|---------------------------------
B-|----------------------------------|---------------------------------

G|--|----------------------------------|-------------------------------
D|--|--0---0--0--0--0--2---2--2--2--2--|--0---0--0--0--0---------------
A|--|----------------------------------|------------------0---0--0--0--
E|--|----------------------------------|-------------------------------
B|--|----------------------------------|-------------------------------

G|----|------------------0---0--0--2--2--|--4---4--4--4--4--6---6--6--6-
D|----|--4---4--4--4--4------------------|------------------------------
A|-0--|----------------------------------|------------------------------
E|----|----------------------------------|------------------------------
B|----|----------------------------------|------------------------------

G|--6--|--7---7--7--7--7--9---9--9--9--9\-|------------------|---------
D|-----|----------------------------------|------------------|---------
A|-----|----------------------------------|--2-------0-------|---------
E|-----|----------------------------------|------------------|--2------
B|-----|----------------------------------|------------------|---------
							   N.H.
G|----------|------------------|----------------|----------<5>-------|-
D|----------|------------------|----------------|--------------------|-
A|----------|------------------|--5-------------|--------------------|-
E|--3-------|--7-------9-------|----------------|--3-----------------|-
B|----------|------------------|----------------|--------------------|-

G|----------------||-*|-
D|----------------||-*|-
A|----------------||-*|-
E|----------------||-*|-
B|--0-------------||-*|-

	  

No existe una video leccione para esta canción

request
LosAcordes
Buscar
auto avanzar rasgueos aumentar disminuir cambiar color esconder acordes gráficos
losacordes exhibir acordes losacordes youTube video losacordes ocultar tabs losacordes ir hacia arriba losacordes