Drake bell

Início > Drake bell > acordes

Hollywood Girl Bass Tablatura Bajo

Drake bell

Dificultad:ExpertoExperto

lay98mcfly0408

tuner correct add songbook print version text version salvar en e-mail
acordesukuleletablaturabaixobateríaarmónicaflautacavacopiano Guitar Pro
acordes

Hollywood Girl Bass

	  Intor/verse 
G|----------------------------| 
D|----------------------------| 
A|--0-0-0-0-0h4-0-0-0-0-------| 
E|-----------------------00---|x4 
pre chours 
G|---------------------------------------| 
D|---------------------------------------| 
A|-4-4-4-4---5-5-5-5----0-0h4-0h4-0h4--2-| 
E|---------------------------------------|play till chours 
chours 
G|--------------------------------------------------------------| 
D|--------------------------------------------------------------| 
A|-5-5-5-5--0-0-0-0-----------4-4-4-4--5-5-5-5--0-0-0-0---------| 
E|-------------------2-2-2-2-----------------------------0-0-0--| 
vers2/ending 
G|-----------------------------------------------------------------------------------| 
D|-----------------------------------------------------------------------------------| 
A|----------2-2-2-2-----2---4--------------------------------------------------------| 
E|-2-2-2-2---------------------------------------------------------------------------| 

| /  slide up 
| \  slide down 
| h  hammer-on 
| p  pull-off 
| ~  vibrato 
| +  harmonic 
| x  Mute note 
	  

No existe una video leccione para esta canción

request
LosAcordes
Buscar
auto avanzar rasgueos aumentar disminuir cambiar color esconder acordes gráficos
losacordes exhibir acordes losacordes youTube video losacordes ocultar tabs losacordes ir hacia arriba losacordes