Distillers

Início > Distillers > acordes

Seneca Falls Tablatura Bajo

Distillers

Dificultad:Ningún gradoNingún grado

tuner correct add songbook print version text version salvar en e-mail
acordesukuleletablaturabaixobateríaarmónicaflautacavacopiano Guitar Pro
acordes

Seneca Falls

	  

 - The 
Great song. this is my first tab, its not perfect but pretty close. > afterthe fret number means play over and over again, you can figure it out. have fun.

Intro (no singing)
G------------------------------------------------------------------------------------
D--2---20----------------------------------------------------------------------------
A-----------420----------------------------------------------------------------------
E-----------------------------------------------------------------------------------


Verse ("it was set in 1848...")
D--2>--------------------------------------------------------------------------------A-------0>---------------------------------------------------------------------------


Part after that (no singing)
G------421-----------1---------------------------------------------------------------
D--2-----------4---4----424----------------------------------------------------------
A------------0-----------------------------------------------------------------------


Basic Riff (starts w/ "oh susan b. anthony.." but is played often throught the song)
G-------------------1----------------------------------------------------------------
D--2>-----4---4----424---------------------------------------------------------------
A-------0>---------------------------------------------------------------------------


After Brody says "check it out.."
D--------------------------------------------------00-0-----------------------------
A---------33-2-00-0-33-2---------33-2-00-0-33-2----------32----------233-34--------
E-33-3----------------------33-3-----------------------------00000------------------
Cont.
D--00-0-----------------------------------------------------------------------------
A----------32----------233-34--------------------------------------------------------
E--------------00000-----------------------------------------------------------------


"And i want and i want and i want and i want.."
D--2>--------------------------------------------------------------------------------
A-------0>---------------------------------------------------------------------------
E------------2>----------------------------------------------------------------------

questions, comments, corrections, whatever.. email me at [email protected] thanks, i hope this wasnt too difficult to understand!

	  

No existe una video leccione para esta canción

request
LosAcordes
Buscar
auto avanzar rasgueos aumentar disminuir cambiar color esconder acordes gráficos
losacordes exhibir acordes losacordes youTube video losacordes ocultar tabs losacordes ir hacia arriba losacordes