Dead Kennedys

Início > Dead Kenne... > acordes

Pull My Strings Tablatura Bajo

Dead Kennedys

Dificultad:FácilFácil

oi! punx

tuner correct add songbook print version text version salvar en e-mail
acordesukuleletablaturabaixobateríaarmónicaflautacavacopiano Guitar Pro
acordes

Pull My Strings

	  INTRO/VERSE:play 10x 
G|--------------------------| 
D|--------------------------| 
A|------5-3------------5-3--| 
E|3\5---------3\5-5---------| 
 
Riff ! i wanna be a tool dont need no soul part: 
G|----------|                      |------------| 
D|----------|                      |------------| 
A|------7-5-|x3then on the last one|------------| 
E|5-7------ |                      |5-7-7-3hold-| 
 
VERSE-x6 
 
Riff 1 
 
Riff 2 drool drool...hear cd for the rythm 
G|------------------| 
D|------5------5----| 
A|------------------| 
E|3-3-----3---------| 
VERSE-x12 
 
Riff 1 
 
(but there's just one problem) 
G|------------------------------------------------------| 
D|-------------2-2---------0-2-0------------------------| 
A|-------2-----------3-3------------3------2----2-------| 
E|3-3-----0-----------------------------3-----3-----0---| 
 
Riff 3: 
G|------------------------------------| 
D|------------2>-----0-2-0------------| 
A|---------2>----3-3-------3----2>----| 
E|0-2-3-3>-------------------3>----0>-| 
	  

No existe una video leccione para esta canción

request
LosAcordes
Buscar
auto avanzar rasgueos aumentar disminuir cambiar color esconder acordes gráficos
losacordes exhibir acordes losacordes youTube video losacordes ocultar tabs losacordes ir hacia arriba losacordes