Dead Kennedys

Início > Dead Kenne... > acordes

Nazi Punks Off Tablatura Bajo

Dead Kennedys

Dificultad:Ningún gradoNingún grado

tuner correct add songbook print version text version salvar en e-mail
acordesukuleletablaturabaixobateríaarmónicaflautacavacopiano Guitar Pro
acordes

Nazi Punks Off

	  

nazi punks *** off

verse:
g -------------------------------------(x2)
d -------------------------------------
a -------------------------------------
e ---9-9-9-9-9---6-6---4-4-4-4-4---4-6-

chorus:
g ------------------------------------(x2)
d ------------------------------------
a ------------------------------------
e ---4-4-6----4-4-6----4-4-6----9--9--

riff A:
g ------------------
d ------------------
a ------------------
e ---4-4-6----9-9-6-

verse:
g -------------------------------------	(x2)
d -------------------------------------
a -------------------------------------
e ---9-9-9-9-9---6-6---4-4-4-4-4---4-6-

chorus:
g -----------------------------------------(x2)
d -----------------------------------------
a -----------------------------------------
e ---4-4-6----4-4-6----4-4-6----9--9-------

riff B:
g -----------------------------------------(x5)
d -----------------------------------------
a -----------------------------------------
e ---9-9-6---9-9-6---9-9-6---4-4-6---------


chorus:
g -----------------------------------------(x2)
d -----------------------------------------
a -----------------------------------------
e ---4-4-6----4-4-6----4-4-6----9--9-------

end:
g -----------------------------------------
d -----------------------------------------
a -----------------------------------------
e ---4-4-6---4-4-6---4-4-6---4-4-6---4-4-6-

	  

No existe una video leccione para esta canción

request
LosAcordes
Buscar
auto avanzar rasgueos aumentar disminuir cambiar color esconder acordes gráficos
losacordes exhibir acordes losacordes youTube video losacordes ocultar tabs losacordes ir hacia arriba losacordes