Dead Kennedys

Início > Dead Kenne... > acordes

Moral Majority Tablatura Bajo

Dead Kennedys

Dificultad:Ningún gradoNingún grado

tuner correct add songbook print version text version salvar en e-mail
acordesukuleletablaturabaixobateríaarmónicaflautacavacopiano Guitar Pro
acordes

Moral Majority

	  




 -  

ALBUM - IN GOD WE TRUST/PLASTIC SURGERY DISASTERS

BASSIST - KLAUS FLOURIDE

THIS MY FIRST TAB BUT IT SOUNDS RIGHT SO LISTEN TO THE SONG FOR TIMING

G|---------0----|-----4--4---0---0--|
D|---2-0-----2-0|-0-2----------4----|
A|-0-----0------|-------------------|REPEAT
E|--------------|-------------------|

G|-------2-----2------|
D|---4-5---------4-0-5|
A|--------------------|REPEAT
E|--------------------|

TABBED BY ANARCHYCHRIS1988 (CHRISTIAN RIOS) ([email protected])

THIS IS ALL I HAVE RIGHT NOW

	  

No existe una video leccione para esta canción

request
LosAcordes
Buscar
auto avanzar rasgueos aumentar disminuir cambiar color esconder acordes gráficos
losacordes exhibir acordes losacordes youTube video losacordes ocultar tabs losacordes ir hacia arriba losacordes