Dead Kennedys

Início > Dead Kenne... > acordes

Kill The Poor Tablatura Bajo

Dead Kennedys

Dificultad:Ningún gradoNingún grado

oi! punx

tuner correct add songbook print version text version salvar en e-mail
acordesukuleletablaturabaixobateríaarmónicaflautacavacopiano Guitar Pro
acordes

Kill The Poor

	  Intro 
G---------------------------------------------------------------------- 
D---------------------------------------------------------------------- 
A-5________________2________________--------------------------5--5-2--- 
E-----------------------------------3________________5________------55- 
 
G---------------------------------------------------------------------- 
D------------3-2------------------------------------------------------- 
A-5_____5--5-----5-2_____2--2-5-3-2------------------------------------ 
E-----------------------------------2________2_______5________________- 
 
Riff 1 
G-------------------------------------------------------------------- 
D--------------------------------------------------------------------  x5 
A-5-5555552223-333--------------------------------------------------- 
E-------------------------------------------------------------------- 
 
Riff 2 
G-------------------------------------------------------------------- 
D-------------------------------------------------------------------- 
A-0-00000000000000--------------------------------------------------- 
E-------------------------------------------------------------------- 
 
Riff 1 x3 
Riff 2 
 
Riff 3 
G-------------------------------------------------------------------- 
D----------------32-------------------------------------------------- 
A-5-555555555555---52-222222222222-532---------------------5-2----5-- 
E-------------------------------------2-2222222222222222-55---5-55-5- 
 
riff 1 x5 
riff 2 
riff 1 x3 
riff 2 
riff 3 x2 
 
riff 4 
G-------------------------------------------------------------------- 
D-------------------------------------------------------------------- 
A-10-10101010101010101010101010108-888888888888887-77777777777777---- 
E-------------------------------------------------------------------- 
 
     (these are tens) 
     ----------------- 
     -----------------	x2 
     ----------------- 
     0-00000000000000- 
	  

No existe una video leccione para esta canción

request
LosAcordes
Buscar
auto avanzar rasgueos aumentar disminuir cambiar color esconder acordes gráficos
losacordes exhibir acordes losacordes youTube video losacordes ocultar tabs losacordes ir hacia arriba losacordes