DC Talk

Início > DC Talk > acordes

Supernatural Tablatura Bajo

DC Talk

Dificultad:FácilFácil

tuner correct add songbook print version text version salvar en e-mail
acordesukuleletablaturabaixobateríaarmónicaflautacavacopiano Guitar Pro
acordes

Supernatural

Áño: 1998 - Álbum: Supernatural

	  

- l>
  this is my first tab so if anyone has any corections for me email me at [email protected] thanx

intro:
-------------------------------
-------------------------------       play howevr many times needed
-------------------------------
-3-3-3-5-5-5-4-4-4-0-0-0-0-0-0-

pre verse:
---------------|---------------|---------------|--------------
---------------|---------------|---------------|--------------     
-3-3-3-5-5-5-4-|-3-3-3-5-5-5-4-|-3-3-3-5-5-5-4-|-4-5-6-3-4-5-3
---------------|---------------|---------------|--------------

verse:
------------------------
------------------------  play 2x   
--4-5-4-5-6-4-5--4-3-2-1 
-3---3----------3-------

          order:inro, pre verse, verse, intro, pre verse, verse

	  

No existe una video leccione para esta canción

request
LosAcordes
Buscar
auto avanzar rasgueos aumentar disminuir cambiar color esconder acordes gráficos
losacordes exhibir acordes losacordes youTube video losacordes ocultar tabs losacordes ir hacia arriba losacordes