DC Talk

Início > DC Talk > acordes

Jesus Freak Tablatura Bajo

DC Talk

Dificultad:AdelantadoAdelantado

tuner correct add songbook print version text version salvar en e-mail
acordesukuleletablaturabaixobateriaarmónicaflautacavacopiano Guitar Pro
acordes

Jesus Freak

Áño: 1995 - Álbum: Jesus Freak

Tono:  Em
	  

(Intro/Chorus)
G--------------------------------
D--------------------------------
A---------------6-6--------------
E-1-1-1-4-4-4-4-----6-6-8-8-8-8-8

(Verse)
G-------------------
D-3~----------------
A-----4~---1~-------
E-------------------

(Verse Pt. 2)
G---------------------------------
D-3-3-3-3-------------------------
A----------4-4-4-4-1-1-1-1-1-1-1-1
E---------------------------------

 (Bridge)
G------------
D------------
A-8~-10-11-10
E------------

(Bridge Alternation)
G-----10-12-13
D-------------
A-8~----------
E-------------

(Bridge)
G---------------------------------------------------------------
D---------------------------------------------------------------
A-5-5-5---------5-------5----------5-5-5---------5-------5--5--5
E-------4-4-4-4---4-4-4---4-6-4-0--------4-4-4-4---4-4-4--4--4--

	  

No existe una video leccione para esta canción

request
LosAcordes