David Bowie

Início > David Bowi... > acordes

Width Of A Circle Tablatura Bajo

David Bowie

Dificultad:Ningún gradoNingún grado

fernsantana

tuner correct add songbook print version text version salvar en e-mail
acordesukuleletablaturabaixobateríaarmónicaflautacavacopiano Guitar Pro
acordes

Width Of A Circle

Tono:  A
	  

Part A 
Intro Bass starts around 0:27 
G|---------------------------------|-------------------------9/------| 
D|---------------------------------|---------------------------------| 
A|---------------------------------|---------------------------------|  
E|---------------------------------|---------------------------------| 
   1 + + + 2 + + + 3 + + + 4 + + +   1 + + + 2 + + + 3 + + + 4 + + + 

G|-16------16--------------14--13--|h14------14--------------13--11--| 
D|---------------------------------|---------------------------------| 
A|---------------------------------|---------------------------------| (h here means play the same note again 
E|---------------------------------|---------------------------------|  and hammer-on quick to the next note) 
   1 + + + 2 + + + 3 + + + 4 + + +   1 + + + 2 + + + 3 + + + 4 + + +     

G|h13------13--------------11--9--9|h11------11----------------------| 
D|---------------------------------|---------------------------------| 
A|---------------------------------|---------------------------------|  
E|---------------------------------|-----------------------------12\-| 
   1 + + + 2 + + + 3 + + + 4 + + +   1 + + + 2 + + + 3 + + + 4 + + + 

G|---------------------------------|---------------------------------| 
D|---------------------------------|---------------------------------| 
A|-7-----7-7-----7---7-7---5---4---|-5-----5-5-----5---5-5---4---2---|  
E|---------------------------------|---------------------------------| 
   1 + + + 2 + + + 3 + + + 4 + + +   1 + + + 2 + + + 3 + + + 4 + + + 

G|---------------------------------|---------------------------------| 
D|---------------------------------|---------------------------------| 
A|-4-----4-4-----4---4-4---2---0---|-2-----2-2-----2---2-------------|  
E|---------------------------------|---------------------0-0-4-4-5-5-| 
   1 + + + 2 + + + 3 + + + 4 + + +   1 + + + 2 + + + 3 + + + 4 + + + 

G|---------------------------------|---------------------------------| 
D|---------------------------------|---------------------------------| 
A|---------------------------------|-----------------------------7-7-|  
E|-0---0-0-4-4-4-5---5-6-6-7-7-7-7-|-0---0-0-4-4-4-5---5-6-6-7-7-----| 
   1 + + + 2 + + + 3 + + + 4 + + +   1 + + + 2 + + + 3 + + + 4 + + + 

verse 1 "In the corner ..." 
G|---------------------------------|---------------------------------| 
D|---------------------------------|---------------------------------| 
A|---------4-----4-5-5---5-6---6---|-7---7-7-------------------------|  
E|-5-----5-------------------------|---------0---0-4---4-5-5-6-6-7-7-| 
   1 + + + 2 + + + 3 + + + 4 + + +   1 + + + 2 + + + 3 + + + 4 + + + 

G|---------------------------------|---------------------------------| 
D|---------------------------------|---------------------------------| 
A|---------4-----4-5-5---5-6---6---|-7---7-7-------------------------|  
E|-5-----5-------------------------|---------0---0-4---4-5-5-6-6-7---| 
   1 + + + 2 + + + 3 + + + 4 + + +   1 + + + 2 + + + 3 + + + 4 + + + 

G|---------------------------------|---------------------------------| 
D|---------5---------------7-------|---------5---------------7-------| 
A|-------5-----5---------7---------|-------5---------------7---------|  
E|-3---------------5---------------|-3---------------5---------------| 
   1 + + + 2 + + + 3 + + + 4 + + +   1 + + + 2 + + + 3 + + + 4 + + + 

G|---------------------------------|-------------------------7h9-7h9-| 
D|---------5---------------6-------|---------6---6-7---7-9-----------| 
A|-------5---------------6---------|-7-----7-------------------------|  
E|-3---------------4---------------|---------------------------------| 
   1 + + + 2 + + + 3 + + + 4 + + +   1 + + + 2 + + + 3 + + + 4 + + + 

Chorus 1 "The I ran across a monster ..." 
G|---------------------------------|---------------------------------| 
D|-7-----x-----7---6-----6---------|-4-----4-----4-------------------| 
A|---------7---------------4-------|---------4-------5-5---5-5---7---|  
E|---------------------------------|---------------------------------| 
   1 + + + 2 + + + 3 + + + 4 + + +   1 + + + 2 + + + 3 + + + 4 + + + 

G|---------------------------------|---------------------------------| 
D|---------------------------------|-----------------7-7-7-7-7-7-7-7-| (These are 4 triplets, listen to catch 
A|-8-----8-8-----8-9-9-9-9-9---9---|-7-----7-------------------------| the rhythm, I couldn't tab it properly) 
E|---------------------------------|---------5-----------------------|  
   1 + + + 2 + + + 3 + + + 4 + + +   1 + + + 2 + + + 3 + + + 4 + + + 

G|---------------------------------|---------------------------------| 
D|---------7-----7---7-7---7---6---|---------------------------------| 
A|---------------------------------|-7-----7-------------------------|  
E|-5-------------------------------|---------0-0-0-4-4-5-5-5-6-6-7-7-| 
   1 + + + 2 + + + 3 + + + 4 + + +   1 + + + 2 + + + 3 + + + 4 + + + 

G|---------------------------------| 
D|---------------------------------| 
A|---------------------------------| 
E|-0---0-0-4-4-4-5---5-6-6-7-7-8-9-| 
   1 + + + 2 + + + 3 + + + 4 + + +    

verse 2 "Well I said hello ..." 
G|---------------------------------|---------------------------------| 
D|---------------------------------|---------------------5-----------| 
A|---------4-----4-5-5---5-6---6---|-7---7-7-------7---7-----7-------|  
E|-5-----5-------------------------|---------7---7---------------12\-| 
   1 + + + 2 + + + 3 + + + 4 + + +   1 + + + 2 + + + 3 + + + 4 + + + 

G|---------------------------------|---------------------------------| 
D|---------------------------------|-------------------------5-------| 
A|---------4-----4-5-5---5-6-6---6-|-7-----7-------------7-------7\--|  
E|-5-----5-------------------------|---------7-7---7---7-------------| 
   1 + + + 2 + + + 3 + + + 4 + + +   1 + + + 2 + + + 3 + + + 4 + + + 

G|---------------------------------|---------------------------------| 
D|---------5---------------7-------|---------5---------------7-------| 
A|-------5-----5---------7---------|-------5-----5---------7---------|  
E|-3---------------5---------------|-3---------------5---------------| 
   1 + + + 2 + + + 3 + + + 4 + + +   1 + + + 2 + + + 3 + + + 4 + + + 

G|---------------------------------|-------------------------7h9-7h9-| 
D|---------5---------------6-------|---------6-6-6-7---7-9-----------| 
A|-------5---------------6---------|-7-----7-------------------------|  
E|-3---------------4---------------|---------------------------------| 
   1 + + + 2 + + + 3 + + + 4 + + +   1 + + + 2 + + + 3 + + + 4 + + + 

Chorus 2 "And I cried for all the others ..." 
G|---------------------------------|---------------------------------| 
D|-7-----7-----7---6-----6---------|-4-----------4-------------------| 
A|---------7---------------4-------|---------4-------5-5---5-5---7---|  
E|---------------------------------|---------------------------------| 
   1 + + + 2 + + + 3 + + + 4 + + +   1 + + + 2 + + + 3 + + + 4 + + + 

G|---------------------------------|---------------------------------| 
D|---------------------------------|---------------7---7-5-----------|  
A|-8-----8-8-----8-9-9-9-9-9---9---|-7-----7-----------------7---4---| 
E|---------------------------------|---------5-----------------------|  
   1 + + + 2 + + + 3 + + + 4 + + +   1 + + + 2 + + + 3 + + + 4 + + + 
                           
                         |-3-|-3-|                                      (Two triplets here) 
G|---------------------------------|---------------------------------| 
D|---------------7---7-5-----------|---------------------------------| 
A|-7-----7-7-------------7-7-7-7-7-|-7---7-7-7---7-7---7-7-7-7-7-7-7-|  
E|---------------------------------|---------------------------------| 
   1 + + + 2 + + + 3 + + + 4 + + +   1 + + + 2 + + + 3 + + + 4 + + + 

G|---------------------------------| 
D|---------------------------------| 
A|-7-7-7-7-7-7-7-7-7-7-7-7-7-7-7-7-| 
E|---------------------------------| 
   1 + + + 2 + + + 3 + + + 4 + + +    

Mick's solo 
G|---------------------------------|---------------------------------| 
D|---------------------------------|---------5-----5-----7---5-------| 
A|-7---7---------------------------|-7---7-7-----7-----7---------7-5-|  
E|-------0-0-0-0-4---4-5---5-6-7-7-|---------------------------------| 
   1 + + + 2 + + + 3 + + + 4 + + +   1 + + + 2 + + + 3 + + + 4 + + + 

G|---------------------------------|---------------------------------| 
D|---------5-----5-----7---5-------|---------5-----5-----5-----5-----| 
A|-7---7-7-----7-----7---------7-5-|-7---7-7-----7-----7-----7-----7-|  
E|---------------------------------|---------------------------------| 
   1 + + + 2 + + + 3 + + + 4 + + +   1 + + + 2 + + + 3 + + + 4 + + + 

G|---------------------------------|---------------------------------| 
D|-5-----5-----5-------5-------5---|-----5---5---5-5/7-7h9-7h9-9-9/--| 
A|-----7-----7-----7-7-----7-7-----|-7-7-----------------------------|  
E|---------------------------------|---------------------------------| 
   1 + + + 2 + + + 3 + + + 4 + + +   1 + + + 2 + + + 3 + + + 4 + + + 

G|-------12----------12--------12--|---------12--------12------------| 
D|-14----------14----------14------|-----14--------14----------14----| 
A|---------------------------------|---------------------------------|  
E|---------------------------------|---------------------------------| 
   1 + + + 2 + + + 3 + + + 4 + + +   1 + + + 2 + + + 3 + + + 4 + + + 

G|-12----------12----------12------|-----12----------12/-------------| 
D|-------14----------14----------14|-----------14------------14/---\-| 
A|---------------------------------|---------------------------------|  
E|---------------------------------|---------------------------------| 
   1 + + + 2 + + + 3 + + + 4 + + +   1 + + + 2 + + + 3 + + + 4 + + + 

G|---------------------------------|---------------------------------| 
D|---------------------5p0---------|---------5-----5---5h7---7/----\-| 
A|-7---7-7-------7---7-----7---5-5-|-7---7-7-----7-------------------|  
E|---------7---7-------------------|---------------------------------| 
   1 + + + 2 + + + 3 + + + 4 + + +   1 + + + 2 + + + 3 + + + 4 + + + 

G|---------------------------------|---------------------------------| 
D|---------------------------------|---------------------------------| 
A|-7---7-7-------7---7-7/--19\-----|-7---7-7-------7---7-7/--19\-----|  
E|---------7---7-------------------|---------7---7-------------------| 
   1 + + + 2 + + + 3 + + + 4 + + +   1 + + + 2 + + + 3 + + + 4 + + + 

G|---------------------------------|---------------------------------| 
D|---------------------------------|---------------------------------| 
A|-7---7---7---7-7-7-7-7-7-7-7-7-7-|-7-7-7-7-7-7-7-7-7-7-7-7-7-7-7-7-|  
E|---------------------------------|---------------------------------| 
   1 + + + 2 + + + 3 + + + 4 + + +   1 + + + 2 + + + 3 + + + 4 + + + 

G|---------------------------------|---------------------------------| 
D|---------------------------------|---------------------------------| 
A|-7-7-7-7-7-7-7-7-7-7-7-7-7-7-7.--|-7v--7v7v7~v---------------------|  
E|---------------------------------|---------------------------------| 
   1 + + + 2 + + + 3 + + + 4 + + +   1 + + + 2 + + + 3 + + + 4 + + + 

G|---------------------------------|---------------------------------| 
D|---------------------------------|---------------------------------| 
A|-7.------7.------7-7-------------|-------------------------7-7-7-7-|  
E|-----------------------4-4-5-6-7-|-0---0-0-4-4-4-5---5-6-7---------| 
   1 + + + 2 + + + 3 + + + 4 + + +   1 + + + 2 + + + 3 + + + 4 + + + 

verse 3 "I said so long ..." 
G|---------------------------------|---------------------9-----9-----| 
D|---------------------------------|---------------------------------| 
A|---------4-----4-5-5---5-6---6---|-7---7-7-7---7-7---7---7-7---7-7-|  
E|-5-----5-------------------------|---------------------------------| 
   1 + + + 2 + + + 3 + + + 4 + + +   1 + + + 2 + + + 3 + + + 4 + + + 

G|---------------------------------|-----------9-9-----9-9-----9-9---| 
D|---------------------------------|---------------------------------| 
A|---------4-----4-5-5---5-6---6---|-7---7-7-7-----7-7-----7-7-------|  
E|-5-----5-------------------------|-------------------------------x-| 
   1 + + + 2 + + + 3 + + + 4 + + +   1 + + + 2 + + + 3 + + + 4 + + + 

G|---------------------------------|---------------------------------| 
D|---------5---------------7-------|---------5---------------7-------| 
A|-------5-----5---------7---------|-------5------5--------7---------|  
E|-3---------------5---------------|-3---------------5---------------| 
   1 + + + 2 + + + 3 + + + 4 + + +   1 + + + 2 + + + 3 + + + 4 + + + 

                                                       |-3-||-3-|-3-|  (one triplet in A, two in B. 
G|---------------------------------|---------------------------------|  Listen closely) 
D|---------5---------------6-------|---------6-----7---7-7-7-9-9-9-9-| 
A|-------5-----5---------6---------|-7-----7-------------------------|  
E|-3---------------4---------------|---------------------------------| 
   1 + + + 2 + + + 3 + + + 4 + + +   1 + + + 2 + + + 3 + + + 4 + + + 

Chorus 3 "And the moral of this magic spell ..." 
G|---------------------------------|---------------------------------| 
D|-7-----7-----7-----------6-------|-4-----4-------------------------| 
A|---------7-------4-----4---------|---------4-------5-----5-5---7---|  
E|---------------------------------|---------------------------------| 
   1 + + + 2 + + + 3 + + + 4 + + +   1 + + + 2 + + + 3 + + + 4 + + + 

                                             |-3-|-3-|-3-|-3-|-3-|-3-| 
G|---------------------------------|---------------------------------| (Listen closely again, 3 triplets on 
D|---------------------------------|--------------------------7-7-7-7|  low A, one in E and two in higher A) 
A|-8-----8-8-----8-9-9-9-9-9---9---|-7-----7-0-0-0-0-0-0-7-7-7-------| 
E|---------------------------------|---------------------------------|  
   1 + + + 2 + + + 3 + + + 4 + + +   1 + + + 2 + + + 3 + + + 4 + + + 

G|---------------------------------|-------------------------------7-| 
D|---------7---7-5---5-------------|---------6---x-7---x-9---x-11----| 
A|-----7---------------7---4---5---|-7---x-x-------------------------|  
E|-5-------------------------------|---------------------------------| 
   1 + + + 2 + + + 3 + + + 4 + + +   1 + + + 2 + + + 3 + + + 4 + + + 

G|-9--9-9-7h9-9-7h9-9-7h9-7h9-7h9p7| 
D|---------------------------------| 
A|---------------------------------| 
E|---------------------------------|  
   1 + + + 2 + + + 3 + + + 4 + + +   

Part A Outro 
G|---------------------------------|---------------------------------| 
D|---------------------------------|---------------------------------| 
A|---------7v----------7---5---4-4h|-5v------5v--------------4---2-2h|  
E|---------------------------------|---------------------------------| 
   1 + + + 2 + + + 3 + + + 4 + + +   1 + + + 2 + + + 3 + + + 4 + + + 

G|---------------------------------|---------------------------------| 
D|---------------------------------|---------------------------------| 
A|-4v------4v--------------2---0-0h|-2v------2v------------------/---|  
E|---------------------------------|---------------------------------| 
   1 + + + 2 + + + 3 + + + 4 + + +   1 + + + 2 + + + 3 + + + 4 + + + 

G|---------------------------------|---------------------------------| 
D|---------------------------------|---------------------------------| 
A|-7-------7v--------------5---4-4h|-5v------5v--------------4---2-2h|  
E|---------------------------------|---------------------------------| 
   1 + + + 2 + + + 3 + + + 4 + + +   1 + + + 2 + + + 3 + + + 4 + + + 

G|---------------------------------|---------------------------------| 
D|---------------------------------|---------------------------------| 
A|-4v------4v--------------2h4p2p0-|-0h2---------/-------------------|  
E|---------------------------------|---------------------------------| 
   1 + + + 2 + + + 3 + + + 4 + + +   1 + + + 2 + + + 3 + + + 4 + + + 

G|-16------16----------16--14--13--|h14------14----------14--13--11--| 
D|---------------------------------|---------------------------------| 
A|---------------------------------|---------------------------------|->(h here means play the same note again 
E|---------------------------------|---------------------------------|  and hammer-on quick to the next note) 
   1 + + + 2 + + + 3 + + + 4 + + +   1 + + + 2 + + + 3 + + + 4 + + +                  / \ 
                                                                                       | 
G|-h13----------13----------------13----11h13p11\9-|-h11----------11---------------------------------| 
D|-------------------------------------------------|-------------------------------------------------| 
A|-------------------------------------------------|-------------------------------------------------| 
E|-------------------------------------------------|--------------------------------------12\---7\---| 
    1  +  +  +  2  +  +  +  3  +  +  +  4  +  +  +    1  +  +  +  2  +  +  +  3  +  +  +  4  +  +  +  

G|---------------------------------|---------------------------------| 
D|---------------------------------|---------------------------------| 
A|-7-----7-7-----7---7-7---5---4-4h|-5-----5-5-----5---5-5---4---2---|  
E|---------------------------------|---------------------------------| 
   1 + + + 2 + + + 3 + + + 4 + + +   1 + + + 2 + + + 3 + + + 4 + + + 

G|---------------------------------|---------------------------------| 
D|---------------------------------|---------------------------------| 
A|-4-------4-----4---4-4---2---0---|-0h2-----------------------------|  
E|---------------------------------|---------------------------------| 
   1 + + + 2 + + + 3 + + + 4 + + +   1 + + + 2 + + + 3 + + + 4 + + + 

Part B 
Intro 
G|---------------------------------|---------------------------------| 
D|---------------------------------|---------------------------------| 
A|---------------------------------|---------------------------------|  
E|---------------------------------|---------------------------------| 
   1 + + + 2 + + + 3 + + + 4 + + +   1 + + + 2 + + + 3 + + + 4 + + + 

G|-12h14-------------------\-----7h|-9-----------------------\-------| 
D|---------------------------------|-------------------------------5h| 
A|---------------------------------|---------------------------------|  
E|---------------------------------|---------------------------------| 
   1 + + + 2 + + + 3 + + + 4 + + +   1 + + + 2 + + + 3 + + + 4 + + +  

G|---------------------------------| 
D|-7-------------------------------| 
A|-------------------------4---7---| 
E|-----------------5---7-----------| 
   1 + + + 2 + + + 3 + + + 4 + + +   

Trippy part 
G|---------------------------------|---------------------------------| 
D|---------------------------------|---------------------------------| 
A|-8-------8-----8-----8---8---8---|-6-------6-----6-----6---6---6---|  
E|-----------------8-10------------|-----------------6-8-------------| 
   1 + + + 2 + + + 3 + + + 4 + + +   1 + + + 2 + + + 3 + + + 4 + + + 

G|-------------------------7-----6-|-----5-------4---------7---------| 
D|---------------------0-0-----0---|---0-----0-0-----0-0-0-----------| 
A|-5-----5-5-----5-5---------------|---------------------------5-6-7-|  
E|---------------------------------|---------------------------------| 
   1 + + + 2 + + + 3 + + + 4 + + +   1 + + + 2 + + + 3 + + + 4 + + + 

G|---------------------------------|---------------------------------| 
D|---------------------------------|---------------------------------| 
A|-8-------8-----------8---8-------|-6-------6-----------6---6---6---|  
E|-----------------8-10------------|-----------------6-8-------------| 
   1 + + + 2 + + + 3 + + + 4 + + +   1 + + + 2 + + + 3 + + + 4 + + + 

G|---------------7-----6-------5---|---------7-----6-----------------| 
D|-------------0-----0-----0-0-----|-0---0-0-----0-------------------| 
A|-5-------5-----------------------|---------------------5---6---7---|  
E|---------------------------------|---------------------------------| 
   1 + + + 2 + + + 3 + + + 4 + + +   1 + + + 2 + + + 3 + + + 4 + + + 

G|---------------------------------|---------------------------------| 
D|---------------------------------|---------------------------------| 
A|-8-------8-----------8---8---8---|-6-------6-----------6---6---6---|  
E|-----------------8-10------------|-----------------6-8-------------| 
   1 + + + 2 + + + 3 + + + 4 + + +   1 + + + 2 + + + 3 + + + 4 + + + 

G|---------------7-----9-----10b---|---------11b---11b---11b---------| (Bend slightly) 
D|-------------0-----0-----0-------|-0---0-------0-----0-------------| 
A|-5-------5-----------------------|-------------------------5---7---|  
E|---------------------------------|---------------------------------| 
   1 + + + 2 + + + 3 + + + 4 + + +   1 + + + 2 + + + 3 + + + 4 + + + 

G|---------------------------------|---------------------------------| 
D|---------------------------------|---------------------------------| 
A|-8-------8-----------8---8-------|-6-------6-----------6---6---6/--|  
E|-----------------8-10------------|-----------------6-8-------------| 
   1 + + + 2 + + + 3 + + + 4 + + +   1 + + + 2 + + + 3 + + + 4 + + + 

( a little faster here) 
G|---------------------------------|---------------------------------| 
D|---------------------------------|---------------------------------| 
A|-5.------5.------5.------5.----0-|-5-------5.------3---------------|  
E|---------------------------------|-------------------------3-------| 
   1 + + + 2 + + + 3 + + + 4 + + +   1 + + + 2 + + + 3 + + + 4 + + + 

G|---------------------------------|---------------------------------| 
D|---------------------------------|---------------------------------| 
A|-5.------5.----x-5.----x-5.----x-|-5-----x-5.------3---------------|  
E|---------------------------------|-------------------------3-------| 
   1 + + + 2 + + + 3 + + + 4 + + +   1 + + + 2 + + + 3 + + + 4 + + + 

verse 1 "He swallowed his pride and puckered his lips ..." 
G|---------------------------------|---------------------------------| 
D|---------------------------------|---------------------------------| 
A|-5.------5.------5.------5.------|-5.------5.----x-3---------------|  
E|---------------------------------|-------------------------3-------| 
   1 + + + 2 + + + 3 + + + 4 + + +   1 + + + 2 + + + 3 + + + 4 + + + 

G|---------------------------------|---------------------------------| 
D|-------------------------7-------|---------------------------------| 
A|-5.----5-5.----5-5.----5-5-----x-|-5-----x-5.----x-3---------------|  
E|---------------------------------|-------------------------3-------| 
   1 + + + 2 + + + 3 + + + 4 + + +   1 + + + 2 + + + 3 + + + 4 + + + 

G|---------------------------------|---------------------------------| 
D|---------------------------------|---------------------------------| 
A|-5.------5.------5.------5.------|-5.----0-5.----5---------3-----0-|  
E|---------------------------------|-----------------3---------------| 
   1 + + + 2 + + + 3 + + + 4 + + +   1 + + + 2 + + + 3 + + + 4 + + + 

G|---------------------------------|---------------------------------| 
D|---------------------------------|---------------------------------| 
A|-5~------------------------------|-----------------3---------------|  
E|---------------------------------|-------------------------3-------| 
   1 + + + 2 + + + 3 + + + 4 + + +   1 + + + 2 + + + 3 + + + 4 + + + 

Chorus 1 "He struck the ground a cavern appeared ..." 
G|---------------------------------|---------------------------------| 
D|-5.------5-----5-5-----5-5-------|-----------------5-----5---------| 
A|-------------------------------5-|---------5-----5-------------5---|  
E|---------------------------------|-7-----7-----------------5h7-----| 
   1 + + + 2 + + + 3 + + + 4 + + +   1 + + + 2 + + + 3 + + + 4 + + + 

G|---------------------------------|---------------------------------| 
D|-7.----7-----------------7-------|-------------------------7-----7-| 
A|---------4-----4-7-----7---------|-0-------4-------7-----7---------|  
E|---------------------------------|---------------------------------| 
   1 + + + 2 + + + 3 + + + 4 + + +   1 + + + 2 + + + 3 + + + 4 + + + 

G|---------------------------------|---------------------------------| 
D|-5-----5-----------------5-------|-------------------------5-------| 
A|-----------------5---------------|---------2-------5---------------|  
E|---------7-----------------------|-3-------------------------------| 
   1 + + + 2 + + + 3 + + + 4 + + +   1 + + + 2 + + + 3 + + + 4 + + + 

G|---------------------------------|---------------------------------| 
D|---------------------------------|---------------------------------| 
A|-5~------------------------------|-----------------3---------------|  
E|---------------------------------|-------------------------3-------| 
   1 + + + 2 + + + 3 + + + 4 + + +   1 + + + 2 + + + 3 + + + 4 + + + 

verse 2 "His nebulous body swayed above ..." 
G|---------------------------------|---------------------------------| 
D|---------------------------------|---------------------------------| 
A|-5-----5-5-----5-5-----5-5-----5-|-5-----5-5-----5-3---------------| (x2) 
E|---------------------------------|-------------------------3-------| 
   1 + + + 2 + + + 3 + + + 4 + + +   1 + + + 2 + + + 3 + + + 4 + + + 

G|---------------------------------|---------------------------------| 
D|---------------------------------|---------------------------------| 
A|-5-----5-5-----5-5-----5-5-----5-|-5-----5-5-------3---------------| 
E|---------------------------------|-------------------------3-------| 
   1 + + + 2 + + + 3 + + + 4 + + +   1 + + + 2 + + + 3 + + + 4 + + + 

G|---------------------------------|---------------------------------| 
D|---------------------------------|---------------------------------| 
A|-5~------------------------------|-----------------3---------------|  
E|---------------------------------|-------------------------3-------| 
   1 + + + 2 + + + 3 + + + 4 + + +   1 + + + 2 + + + 3 + + + 4 + + + 

Chorus 2 "Breathe, breathe, breathe deeply ..." 
G|---------------------------------|---------------------------------| 
D|-5-----5-5-----5-5-----5-5-------|---------------------------------| 
A|-------------------------------5-|-2-----2-5-----5---------2-----2-|  
E|---------------------------------|-----------------3-----3---------| 
   1 + + + 2 + + + 3 + + + 4 + + +   1 + + + 2 + + + 3 + + + 4 + + + 

G|---------------------------------|---------------------------------| 
D|-------------------------7-------|-------------------------4-------| 
A|---------4-----4-7-----7---------|---------4-----4-7-----7---7-4---|  
E|-5-----5-------------------------|-5-----5-------------------------| 
   1 + + + 2 + + + 3 + + + 4 + + +   1 + + + 2 + + + 3 + + + 4 + + + 

G|---------------------------------|---------------------------------| 
D|-------------------------5-------|-------------------------5-------| 
A|---------2-------5---------------|---------2-------5---------------|  
E|-3-------------------------------|-3-------------------------------| 
   1 + + + 2 + + + 3 + + + 4 + + +   1 + + + 2 + + + 3 + + + 4 + + + 

G|---------------------------------|---------------------------------| 
D|---------------------------------|---------------------------------| 
A|-5~------------------------------|-----------------3---------------|  
E|---------------------------------|-------------------------3-------| 
   1 + + + 2 + + + 3 + + + 4 + + +   1 + + + 2 + + + 3 + + + 4 + + + 

Mick's solo 2 
G|---------------------------------|---------------------------------| 
D|-------------------------5-----7-|---------------------------------| 
A|---------4-----4-7-----7---------|---------4-------7---------------| 
E|-5.----5-------------------------|-5.----5-----------------4-------| 
   1 + + + 2 + + + 3 + + + 4 + + +   1 + + + 2 + + + 3 + + + 4 + + + 

G|---------------------------------|---------------------------------| 
D|---------------------------------|---------------------------------| 
A|---------------------------------|---------------------------------| 
E|-5-----5-5.----5-5.----5-5.----5-|-5.----5-5.----5-5.----5-5v----5-| 
   1 + + + 2 + + + 3 + + + 4 + + +   1 + + + 2 + + + 3 + + + 4 + + + 

G|---------------------------------|---------------------------------| 
D|---------------------------------|---------------------------------| 
A|---------------------------------|-----------------------5-5-------|  
E|-5.----5-5.----5-5.----5-5.----5-|-5.----5-5.----5-3-/-5-----------| 
   1 + + + 2 + + + 3 + + + 4 + + +   1 + + + 2 + + + 3 + + + 4 + + + 

G|---------------------------------|-----------------------------------------17-17---| 
D|---------------------------------|--------------------------------------17---------| 
A|-0.----0-0.----0-0.----0-0.----0-|--0.-------0--0.-------0------14--17-------------| (x2) 
E|---------------------------------|--------------------------15---------------------| 
   1 + + + 2 + + + 3 + + + 4 + + +    1  +  +  +  2  +  +  +  3  +  +  +  4  +  +  +  

G|---------------------------------|-------------------------2-------| 
D|-0.------------------------------|---------------------------5-----| 
A|-------3-------------------------|--------------------2-5----------|  
E|---------5.----5-5.----5-5.----5-|-5.----5-5.------3---------------| 
   1 + + + 2 + + + 3 + + + 4 + + +   1 + + + 2 + + + 3 + + + 4 + + + 

G|---------------------------------|---------------------------2-----| 
D|---------------------------------|-----------------------0-2---2---| 
A|---------------------------------|--------------------2------------|  
E|-5.------5.----5-5.----5-5.----5-|-5.----5-5-------3---------------| 
   1 + + + 2 + + + 3 + + + 4 + + +   1 + + + 2 + + + 3 + + + 4 + + + 

G|---------------------------------|---------------------------------| 
D|---------------------------------|---------------------------------| 
A|---------------------------------|---------------------------------|  
E|-5-----5-5-----5-5-----5-5-----5-|-5.----5-5.----5-3-/-----12\-----| 
   1 + + + 2 + + + 3 + + + 4 + + +   1 + + + 2 + + + 3 + + + 4 + + + 

G|---------------------------------|---------------------------------| 
D|---------------------------------|---------------------------------| 
A|---------------------------------|---------------------------------|  
E|-5.------5.----5-5.----5-5.----5-|-5.----5-5.----5-3-/-----12\-----| 
   1 + + + 2 + + + 3 + + + 4 + + +   1 + + + 2 + + + 3 + + + 4 + + + 

G|---------------------------------|-----------------------------------------17-17---| 
D|---------------------------------|--------------------------------------17---------| 
A|-0.------0.----0-0.----0-0.----0-|--0.-------0--0.-------0------14--17-------------| (x2) 
E|---------------------------------|--------------------------15---------------------| 
   1 + + + 2 + + + 3 + + + 4 + + +    1  +  +  +  2  +  +  +  3  +  +  +  4  +  +  +  

G|---------------------------------|---------------------------------| 
D|---------------------------------|-------------------------5/--\---| 
A|---------------------------------|--------------------2--5---------|  
E|-------5-5.----5-5.----5-5.----5-|-5.----5-5-----5-3---------------| 
   1 + + + 2 + + + 3 + + + 4 + + +   1 + + + 2 + + + 3 + + + 4 + + + 

G|---------------------------------|-------------------------7\------| 
D|---------------------------------|---------------------------------| 
A|---------------------------------|---------------------------------|  
E|-5.----5-5.----5-5.----5-5.----5-|-5.----5-5.------3---------------| 
   1 + + + 2 + + + 3 + + + 4 + + +   1 + + + 2 + + + 3 + + + 4 + + + 

G|---------------------------------|---------------------------------| 
D|---------------------------------|---------------------------------| 
A|---------------------------------|---------------------------------|  
E|-5.----5-5.----5-5.----5-5.----5-|-5.----5-5.----5-3-------/---\---| 
   1 + + + 2 + + + 3 + + + 4 + + +   1 + + + 2 + + + 3 + + + 4 + + + 

G|---------------------------------|---------------------------------| 
D|---------------------------------|---------------------------------| 
A|---------------------------------|---------------------------------|  
E|-5~------------------------------|---------------------------------| 
   1 + + + 2 + + + 3 + + + 4 + + +   1 + + + 2 + + + 3 + + + 4 + + + 

Outro 
G|---------------------------------|---------------------------------| 
D|---------------------------------|---------------------------------| 
A|-8-------8-----8-----8---8---8---|-6-------6-----6-----6---6---6---|  
E|-----------------8-10------------|-----------------6-8-------------| 
   1 + + + 2 + + + 3 + + + 4 + + +   1 + + + 2 + + + 3 + + + 4 + + + 

G|---------------7-----6-------5---|---------7-----6-----5\----------| 
D|-------------0-----0-----0-0-----|-0---0-0-----0-----0-------------| 
A|-5-------5-----------------------|-------------------------5---7---|  
E|---------------------------------|---------------------------------| 
   1 + + + 2 + + + 3 + + + 4 + + +   1 + + + 2 + + + 3 + + + 4 + + + 

G|---------------------------------|---------------------------------| 
D|---------------------------------|---------------------------------| 
A|-8-------8-----------8---8-------|-6-------6-----------6---6---/--\|  
E|-----------------8-10------------|-----------------6-8-------------| 
   1 + + + 2 + + + 3 + + + 4 + + +   1 + + + 2 + + + 3 + + + 4 + + + 

G|---------------------------------|---------------------------------| 
D|---------------------------------|---------------------------------| 
A|-5~------------------------------|---------------------------------|  
E|---------------------------------|---------------------------------| 
   1 + + + 2 + + + 3 + + + 4 + + +   1 + + + 2 + + + 3 + + + 4 + + + 

************************************ 

| h      Hammer-on 
| p      Pull-off 
| ~      Let ring 
| v      Vibrato 
| /      Slide up 
| \      Slide down 
| .      Staccato 
| b      Bend 
| |-3-|  Triplets 
| x      Dead note 

*********************************** 
	  

No existe una video leccione para esta canción

request
Aumentar uno tonoAumentar uno tono
Aumentar uno semi-tonoAumentar uno semi-tono
Disminuir uno semi-tonoDisminuir uno semi-tono
Disminuir uno tonoDisminuir uno semi-tono
LosAcordes
Buscar
auto avanzar rasgueos aumentar disminuir cambiar color esconder acordes gráficos
losacordes exhibir acordes losacordes youTube video losacordes ocultar tabs losacordes ir hacia arriba losacordes