David Bowie

Início > David Bowi... > acordes

Up The Hill Backwards Tablatura Bajo

David Bowie

Dificultad:Ningún gradoNingún grado

gustsilva

tuner correct add songbook print version text version salvar en e-mail
acordesukuleletablaturabaixobateríaarmónicaflautacavacopiano Guitar Pro
acordes

Up The Hill Backwards

Áño: 1980 - Álbum: Scary Monsters

Tono:  A
	  
Intro 
G|---------------------------------|---------------------------------| 
D|---------------------------------|---------------------------------| 
A|---------------------------------|---------------------------------| (x2) 
E|---------------------------------|---------------------------------| 
   1 + + + 2 + + + 3 + + + 4 + + +   1 + + + 2 + + + 3 + + + 4 + + + 

G|---------------------------------|-------------------------| 
D|---------------------------------|-------------------------| 
A|---------------------------------|-------------------------|  
E|-5-----------5-------3---5-------|-------------------------| 
   1 + + + 2 + + + 3 + + + 4 + + +   1 + + + 2 + + + 3 + + +  

G|---------------------------------|-------------------------| 
D|---------------------------------|-------------------------| 
A|-5-----------5-------3---5-------|-------------------------|  
E|---------------------------------|-------------------------| 
   1 + + + 2 + + + 3 + + + 4 + + +   1 + + + 2 + + + 3 + + +  

G|---------------------------------|-------------------------| 
D|-------------------------5-------|-------------------------| 
A|-------------5-------7-----------|-------------------------|  
E|-8-------x-----------------------|-------------------------| 
   1 + + + 2 + + + 3 + + + 4 + + +   1 + + + 2 + + + 3 + + +  

G|---------------------------------|-------------------------| 
D|---------------------------------|-------------------------| 
A|-5-------x---5-------------------|-------------------------|  
E|-------------------------5-------|-------------------------| 
   1 + + + 2 + + + 3 + + + 4 + + +   1 + + + 2 + + + 3 + + +  

G|---------------------------------|-------------------------| 
D|---------------------------------|-------------------------| 
A|---------------------------------|-------------------------|  
E|-5-----------5-------3---5-------|-------------------------| 
   1 + + + 2 + + + 3 + + + 4 + + +   1 + + + 2 + + + 3 + + +  

G|---------------------------------|-------------------------| 
D|---------------------------------|-------------------------| 
A|-5-------x---5-------3---5-------|-------------------------|  
E|---------------------------------|-------------------------| 
   1 + + + 2 + + + 3 + + + 4 + + +   1 + + + 2 + + + 3 + + +  

G|---------------------------------|-------------------------| 
D|---------------------x---5-------|-------------------------| 
A|-3-------------------------------|-------------------------|  
E|-------------0-------------------|-------------------------| 
   1 + + + 2 + + + 3 + + + 4 + + +   1 + + + 2 + + + 3 + + +  

G|-------------------------| 
D|-------------------------| 
A|-5-------x---5-------x---| 
E|-------------------------| 
   1 + + + 2 + + + 3 + + + 

verse 1 "The vacuum created ..." 
G|---------------------------------|---------------------------------| 
D|---------------------------------|-------------7-------------------| 
A|-------------5-------------------|-7-------7-----------------------| 
E|-5-------------------------------|---------------------------------| 
   1 + + + 2 + + + 3 + + + 4 + + +   1 + + + 2 + + + 3 + + + 4 + + + 

G|---------------------------------|---------------------------------| 
D|-7-------------------------------|---------------------------------| 
A|---------7---9-------------------|-7---7-------5-------------------| 
E|---------------------------------|---------5-----------------------| 
   1 + + + 2 + + + 3 + + + 4 + + +   1 + + + 2 + + + 3 + + + 4 + + + 

G|---------------------------------|---------------------------------| 
D|---------------------------------|---------------------------------| 
A|-------------5---------------5---|-7-------------------------------| 
E|-5-------5-----------------------|-----2---3---5-------------------| 
   1 + + + 2 + + + 3 + + + 4 + + +   1 + + + 2 + + + 3 + + + 4 + + + 

G|---------------------------------|---------------------------------| 
D|---------------------------------|---------------------------------| 
A|---------------------------------|---------4---5-------5---5h6-7---| 
E|-5-------0---2-------------------|-0---5---------------------------| 
   1 + + + 2 + + + 3 + + + 4 + + +   1 + + + 2 + + + 3 + + + 4 + + + 

G|---------------------------------|---------------------------------| 
D|---------------------------------|-------------7-------------------| 
A|-------------5-------------------|-7-------7-----------------------| 
E|-5-------5-----------------------|---------------------------------| 
   1 + + + 2 + + + 3 + + + 4 + + +   1 + + + 2 + + + 3 + + + 4 + + + 

G|---------------------------------|---------------------------------| 
D|-7-------------------------------|-----9---------------------7-----| 
A|---------7---9-------------------|-7-------7---5-------5---5---7---| 
E|---------------------------------|---------------------------------| 
   1 + + + 2 + + + 3 + + + 4 + + +   1 + + + 2 + + + 3 + + + 4 + + + 

G|---------------------------------|---------------------------------| 
D|---------------------------------|-------------7-------------------| 
A|-------------5---------------5---|-7-------7-------------------7---| 
E|-5-------5-----------------------|---------------------------------| 
   1 + + + 2 + + + 3 + + + 4 + + +   1 + + + 2 + + + 3 + + + 4 + + + 

G|---------------------------------|-----------------| 
D|-7-------------------------------|-2---------------| 
A|-----7---8---9---------------4---|-----2---4---5---| 
E|---------------------------------|-----------------| 
   1 + + + 2 + + + 3 + + + 4 + + +   1 + + + 2 + + +  

Chorus 1 "Yeah, up the hill backwards ..." 
G|---------7-----------7-----------|---------------------------------| 
D|---------------------------------|---------------------------------| 
A|-----5-------5---5-------5---5---|-----5---5---5---5-----------5---| 
E|---------------------------------|---------------------5---7-------| 
   1 + + + 2 + + + 3 + + + 4 + + +   1 + + + 2 + + + 3 + + + 4 + + + 

G|---------------------------------|---------------------------------| 
D|---------------------------------|---------------------------------| 
A|---------5-------5-------5-------|-7-----------5-------5---5---5---| 
E|-----------------------------5---|---------7-----------------------| 
   1 + + + 2 + + + 3 + + + 4 + + +   1 + + + 2 + + + 3 + + + 4 + + + 

Solo 
G|---------------------------------|---------------------------------| 
D|-------------7-------------------|---------------------------------| 
A|-5-------5-----------------------|-7-------7-----------------------| 
E|---------------------------------|-------------5-------------------| 
   1 + + + 2 + + + 3 + + + 4 + + +   1 + + + 2 + + + 3 + + + 4 + + + 

G|---------------------------------|---------------------------------| 
D|---------------------------------|---------------------------------| 
A|---------------------------------|---------4---5-----------7-------| 
E|-5---0---1---2---------------2---|-0---5---------------7-----------| 
   1 + + + 2 + + + 3 + + + 4 + + +   1 + + + 2 + + + 3 + + + 4 + + + 

verse 2 "While we sleep ..." 
G|---------------------------------|---------------------------------| 
D|---------------------------------|-------------7-------------------| 
A|-------------5-------------------|-7---9---7-------------------7---| 
E|-5-------5-----------------------|---------------------------------| 
   1 + + + 2 + + + 3 + + + 4 + + +   1 + + + 2 + + + 3 + + + 4 + + + 

G|---------6---11------------------|-9-----------7-------------------| 
D|-7---9---------------------9h11--|-----7---9-----------9-----------| 
A|---------------------------------|-------------------------7---9\--| 
E|---------------------------------|---------------------------------| 
   1 + + + 2 + + + 3 + + + 4 + + +   1 + + + 2 + + + 3 + + + 4 + + + 

G|---------------------------------|---------------------------------| 
D|---------------------------------|-------------7-------------------| 
A|-------------5---------------5---|-7-------7-------------------7---| 
E|-5-------5-----------------------|---------------------------------| 
   1 + + + 2 + + + 3 + + + 4 + + +   1 + + + 2 + + + 3 + + + 4 + + + 

G|---------------------------------|---------------------------------| 
D|-7-------------------------------|---------------------------------| 
A|---------7---9-------------------|-7-----------5-----------5---7---| 
E|---------------------------------|---------5-----------------------| 
   1 + + + 2 + + + 3 + + + 4 + + +   1 + + + 2 + + + 3 + + + 4 + + + 

G|---------------------------------|---------------------------------| 
D|---------------------------------|---------------------------------| 
A|-------------5---------------5---|-7-------7-----------------------| 
E|-5-------5-----------------------|-------------5-------2---3---4---| 
   1 + + + 2 + + + 3 + + + 4 + + +   1 + + + 2 + + + 3 + + + 4 + + + 

G|---------------------------------|-----------------| 
D|---------------------------------|-----------------| 
A|---------------------------------|-----2---4---5---| 
E|-5-------5---2-------------------|-0---------------| 
   1 + + + 2 + + + 3 + + + 4 + + +   1 + + + 2 + + +  

Chorus 2 "Yeah, up the hill backwards ..." 
G|---------7-----------7-----------|---------------------------------| 
D|---------------------------------|---------------------------------| 
A|-----5-------5---5-------5---5---|-----5---5---5---5-----------5---| 
E|---------------------------------|---------------------5---7-------| 
   1 + + + 2 + + + 3 + + + 4 + + +   1 + + + 2 + + + 3 + + + 4 + + + 

G|---------------------------------|---------------------------------| 
D|---------------------------------|---------------------------------| 
A|---------5-------5-------5-------|-7-----------5-------------------| 
E|---------------------------------|---------------------------------| 
   1 + + + 2 + + + 3 + + + 4 + + +   1 + + + 2 + + + 3 + + + 4 + + + 

Outro 
G|---------------------------------|-------------------------| 
D|---------------------------------|-------------------------| 
A|---------------------------------|-------------------------|  
E|-5-----------5-------3---5-------|-------------------------| 
   1 + + + 2 + + + 3 + + + 4 + + +   1 + + + 2 + + + 3 + + +  

G|---------------------------------|-------------------------| 
D|---------------------------------|-------------------------| 
A|-5-----------5-------3---5-------|-------------------------|  
E|---------------------------------|-------------------------| 
   1 + + + 2 + + + 3 + + + 4 + + +   1 + + + 2 + + + 3 + + +  

G|---------------------------------|-------------------------| 
D|-------------------------5-------|-------------------------| 
A|-------------5-------7-----------|-------------------------|  
E|-8-------x-----------------------|-------------------------| 
   1 + + + 2 + + + 3 + + + 4 + + +   1 + + + 2 + + + 3 + + +  

G|---------------------------------|-------------------------| 
D|---------------------------------|-------------------------| 
A|-5-------x---3-------5-----------|-------------------------|  
E|-------------------------5-------|-------------------------| 
   1 + + + 2 + + + 3 + + + 4 + + +   1 + + + 2 + + + 3 + + +  

G|---------------------------------|-------------------------| 
D|---------------------------------|-------------------------| 
A|---------------------------------|-------------------------|  
E|-5-----------5-------3---5-------|-------------------------| 
   1 + + + 2 + + + 3 + + + 4 + + +   1 + + + 2 + + + 3 + + +  

G|---------------------------------|-------------------------| 
D|---------------------------------|-------------------------| 
A|-5-------x---5-------3---5-------|-------------------------|  
E|---------------------------------|-------------------------| 
   1 + + + 2 + + + 3 + + + 4 + + +   1 + + + 2 + + + 3 + + +  

G|---------------------------------|-------------------------| 
D|---------------------------------|-------------------------| 
A|-3-------------------------------|-------------------------|  
E|---------x---0-------1---3-------|-------------------------| 
   1 + + + 2 + + + 3 + + + 4 + + +   1 + + + 2 + + + 3 + + +  

G|---------------------------------|-------------------------| 
D|---------------------------------|-------------------------| 
A|-5-------x---5-------7-----------|-------------------------|  
E|-------------------------5-------|-------------------------| 
   1 + + + 2 + + + 3 + + + 4 + + +   1 + + + 2 + + + 3 + + +  

(Slap from here on. Slap on E & A, Pop on D & G) 
G|*--------x-----------------------|-------------------------| 
D|*--------------------------------|-------------------------| 
A|*--------------------------------|-------------------------|  
E|*5-----------5-------3---5-------|-------------------------| 
   1 + + + 2 + + + 3 + + + 4 + + +   1 + + + 2 + + + 3 + + +  
    
G|---------------------------------|-------------------------| 
D|---------------------------------|-------------------------| 
A|-5-------x---5-------3---5-------|-------------------------|  
E|---------------------------------|-------------------------| 
   1 + + + 2 + + + 3 + + + 4 + + +   1 + + + 2 + + + 3 + + +  

G|---------------------------------|-------------------------| 
D|---------------------------------|-------------------------| 
A|-3-------------------------------|-------------------------|  
E|---------x---0-------x---3-------|-------------------------| 
   1 + + + 2 + + + 3 + + + 4 + + +   1 + + + 2 + + + 3 + + +  

G|---------x-----------------------|------------------------*| 
D|---------------------------------|------------------------*| (x2) 
A|-5-----------3-------5-----------|------------------------*|  
E|-------------------------5-------|------------------------*| 
   1 + + + 2 + + + 3 + + + 4 + + +   1 + + + 2 + + + 3 + + +  

G|---------------------------------|-------------------------| 
D|---------7-----------------------|-------------------------| 
A|---------------------------------|-------------------------|  
E|-5-----------5-------3---5-------|-------------------------| 
   1 + + + 2 + + + 3 + + + 4 + + +   1 + + + 2 + + + 3 + + +  
    
G|---------7-----------------------|-------------------------| 
D|---------------------------------|-------------------------| 
A|-5-----------5-------3---5-------|-------------------------|  
E|---------------------------------|-------------------------| 
   1 + + + 2 + + + 3 + + + 4 + + +   1 + + + 2 + + + 3 + + +  

G|---------5-----------------------|-------------------------| 
D|---------------------------------|-------------------------| 
A|-3-------------------------------|-------------------------|  
E|-------------0-------x---3-------|-------------------------| 
   1 + + + 2 + + + 3 + + + 4 + + +   1 + + + 2 + + + 3 + + +  

G|---------x-----------------------|-------------------------| 
D|---------------------------------|-------------------------| 
A|-5-----------3-------5-----------|-------------------------|  
E|-------------------------5-------|-------------------------| 
   1 + + + 2 + + + 3 + + + 4 + + +   1 + + + 2 + + + 3 + + +  

G|---------x-----------------------|-------------------------| 
D|---------------------------------|-------------------------| 
A|---------------------------------|-------------------------|  
E|-5-----------5-------3---5-------|-------------------------| 
   1 + + + 2 + + + 3 + + + 4 + + +   1 + + + 2 + + + 3 + + +  
    
G|---------------------------------|-------------------------| 
D|---------------------------------|-------------------------| 
A|-5-------x---5-------3---5-------|-------------------------|  
E|---------------------------------|-------------------------| 
   1 + + + 2 + + + 3 + + + 4 + + +   1 + + + 2 + + + 3 + + +  

G|---------------------------------|-------------------------| 
D|---------------------------------|-------------------------| 
A|-3-------------------------------|-------------------------|  
E|---------x---0-------x---3-------|-------------------------| 
   1 + + + 2 + + + 3 + + + 4 + + +   1 + + + 2 + + + 3 + + +  

G|---------x-----------------------|-------------------------| 
D|---------------------7-----------|-------------------------| 
A|-5-----------5-------------------|-------------------------|  
E|-------------------------5-------|-------------------------| 
   1 + + + 2 + + + 3 + + + 4 + + +   1 + + + 2 + + + 3 + + +  

G|---------------------------------|-------------------------| 
D|-------------7-------------------|-------------------------| 
A|---------------------------------|-------------------------|  
E|-5-------x-----------x---5-------|-------------------------| 
   1 + + + 2 + + + 3 + + + 4 + + +   1 + + + 2 + + + 3 + + +  
    
G|-------------7-------------------|-------------------------| 
D|---------------------------------|-------------------------| 
A|-5-------x-----------3---5-------|-------------------------|  
E|---------------------------------|-------------------------| 
   1 + + + 2 + + + 3 + + + 4 + + +   1 + + + 2 + + + 3 + + +  

G|---------5-----------------------|-------------------------| 
D|---------------------------------|-------------------------| 
A|-3-----------3-------------------|-------------------------|  
E|---------------------0---3-------|-------------------------| 
   1 + + + 2 + + + 3 + + + 4 + + +   1 + + + 2 + + + 3 + + +  

G|---------x-----------------------|-------------------------| 
D|---------------------------------|-------------------------| (Fade) 
A|-5-----------5-------7-----------|-------------------------|  
E|-------------------------5-------|-------------------------| 
   1 + + + 2 + + + 3 + + + 4 + + +   1 + + + 2 + + + 3 + + +  

*********************************** 

| / Slide up 
| \ Slide down 
| h Hammer-on 
| x Dead note 

*********************************** 
	  

No existe una video leccione para esta canción

request
Aumentar uno tonoAumentar uno tono
Aumentar uno semi-tonoAumentar uno semi-tono
Disminuir uno semi-tonoDisminuir uno semi-tono
Disminuir uno tonoDisminuir uno semi-tono
LosAcordes
Buscar
auto avanzar rasgueos aumentar disminuir cambiar color esconder acordes gráficos
losacordes exhibir acordes losacordes youTube video losacordes ocultar tabs losacordes ir hacia arriba losacordes