David Bowie

Início > David Bowi... > acordes

Station To Station Tablatura Bajo

David Bowie

Dificultad:Ningún gradoNingún grado

edsooliveira

tuner correct add songbook print version text version salvar en e-mail
acordesukuleletablaturabaixobateríaarmónicaflautacavacopiano Guitar Pro
acordes

Station To Station

Áño: 1976 - Álbum: Station to Station

Tono:  G
	  
Intro Start at 1:22 
G|---------------------------------|---------------------------------| 
D|---------------------------------|---------------------------------| 
A|---------------------------------|---------------------------------| (x4) 
E|-3h5-----5-----------------------|-3h5-----5-----------------------| 
   1 + + + 2 + + + 3 + + + 4 + + +   1 + + + 2 + + + 3 + + + 4 + + + 

G|---------------------------------|---------------------------------|-----------------| 
D|---------------------------------|---------------------------------|---------5-------| 
A|-----------------3---------------|-3-------------------------------|-----------------| 
E|-3h5-----5---------5-----5-------|---5-----5---3---1-1-1-1-1---3-3-|-3-3-3-----3-----| 
   1 + + + 2 + + + 3 + + + 4 + + +   1 + + + 2 + + + 3 + + + 4 + + +   1 + + + 2 + + +  

G|---------------------------------|---------------------------------|-----------------| 
D|---------------------------------|---------------------------------|---------5-------| 
A|-----------------3---------------|-3-------------------------------|-----------------| 
E|-3-5-----5-----5---5-----5-----5-|---5-----5---3---1-1-1-1-1---3-3-|-3-3-3-----3-----| 
   1 + + + 2 + + + 3 + + + 4 + + +   1 + + + 2 + + + 3 + + + 4 + + +   1 + + + 2 + + +  

G|---------------------------------|---------------------------------|-----------------| 
D|---------------------------------|---------------------------------|---------5-------| 
A|-----------------3---------------|-3-------------------------------|-----------------| 
E|-3-5-----5---------5-----5-----5-|---5-----5---3---1-1-1-1-1---3-3-|-3-3-3-----3-----| 
   1 + + + 2 + + + 3 + + + 4 + + +   1 + + + 2 + + + 3 + + + 4 + + +   1 + + + 2 + + +  

G|---------------------------------|---------------------------------|-----------------| 
D|---------------------------------|---------------------------------|---------5-------| 
A|-----------------3---------------|-3-------------------------------|-----------------| (x3) 
E|-3-5-----5---------5-----5-------|---5-----5---3---1-1-1-1-1---3-3-|-3-3-3-----3-----| 
   1 + + + 2 + + + 3 + + + 4 + + +   1 + + + 2 + + + 3 + + + 4 + + +   1 + + + 2 + + +  

G|---------------------------------|---------------------------------|-----------------| 
D|---------------------------------|---------------------------------|---------5-------| 
A|-----------------3---------------|-3-------------------------------|-----------------| 
E|-3h5-----5-----5---5-----5-------|---5-----5---3---1-1-1-1-1---3-3-|-3-3-3-----3-----| 
   1 + + + 2 + + + 3 + + + 4 + + +   1 + + + 2 + + + 3 + + + 4 + + +   1 + + + 2 + + +  

G|---------------------------------|---------------------------------|-----------------| 
D|---------------------------------|---------------------------------|---------5-------| 
A|-----------------3---------------|-3-------------------------------|-----------------| (x2) 
E|-3h5-----5---------5-----5-------|---5-----5---3---1-1-1-1-1---3-3-|-3-3-3-----3-----| 
   1 + + + 2 + + + 3 + + + 4 + + +   1 + + + 2 + + + 3 + + + 4 + + +   1 + + + 2 + + +  

G|---------------------------------|---------------------------------|-----------------| 
D|---------------------------------|---------------------------------|-----------------| 
A|-----------------3---------------|-3-------------------------------|-----------------| 
E|-3h5-----5---------5-----5-------|---5-----5---3---1-1-1-1-1---3-3-|-3-3-3---5-5-----| 
   1 + + + 2 + + + 3 + + + 4 + + +   1 + + + 2 + + + 3 + + + 4 + + +   1 + + + 2 + + +  

Chorus A 1 "The return of the thin white duke ..." 
G|---------------------------------|---------------------------------|-----------------| 
D|-------------3-4-5-----------5---|-4-------------------------------|-----------------| 
A|-3-------------------------5---5-|-----------------5---------------|-5---------------| 
E|---------------------------------|---------------5-------------5---|-----------------| 
   1 + + + 2 + + + 3 + + + 4 + + +   1 + + + 2 + + + 3 + + + 4 + + +   1 + + + 2 + + + 

Verse A 1 "Here are we ..." 
G|---------------------------------|---------------------------------|-----------------| 
D|---------------------------------|---------------------------------|---------5-------| 
A|-----------------3---------------|-3-------------------------------|-----------------| 
E|-3h5-----5---------5-----5-------|---5-----5---3---1-1-1-1-1---3-3-|-3-3-3-----3-----| 
   1 + + + 2 + + + 3 + + + 4 + + +   1 + + + 2 + + + 3 + + + 4 + + +   1 + + + 2 + + +  

G|---------------------------------|---------------------------------|-----------------| 
D|---------------------------------|---------------------------------|---------5-------| 
A|-----------------3---------------|-3-------------------------------|-----------------| 
E|-3h5-----5---------5-----5-------|---5---0-5---3---1-1-1-1-1---3-3-|-3-3-3-----3-----| 
   1 + + + 2 + + + 3 + + + 4 + + +   1 + + + 2 + + + 3 + + + 4 + + +   1 + + + 2 + + +  

G|---------------------------------|---------------------------------|-----------------| 
D|---------------------------------|---------------------------------|---------5-------| 
A|-----------------3---------------|-3-------------------------------|-----------------| 
E|-3-5-----5-----5---5-----5-----5-|---5-----5---3---1-1-1-1-1---3-3-|-3-3-3-----3-----| 
   1 + + + 2 + + + 3 + + + 4 + + +   1 + + + 2 + + + 3 + + + 4 + + +   1 + + + 2 + + +  

G|---------------------------------|---------------------------------|-----------------| 
D|---------------------------------|---------------------------------|---------5-5-----| 
A|-----------------3---------------|-3-------------------------------|-----------------| 
E|-3h5-----5-----5---5-----5-----5-|---5-----5---3---1-1-1-1-1---3-3-|-3-3-3-----------| 
   1 + + + 2 + + + 3 + + + 4 + + +   1 + + + 2 + + + 3 + + + 4 + + +   1 + + + 2 + + +  

G|---------------------------------|---------------------------------|-----------------| 
D|---------------------------------|---------------------------------|---------5-------| 
A|-----------------3---------------|-3-------------------------------|-----------------| 
E|-3h5-----5-----5---5-----5-------|---5---0-5---3---1-1-1-1-1---3-3-|-3-3-3-----3-----| 
   1 + + + 2 + + + 3 + + + 4 + + +   1 + + + 2 + + + 3 + + + 4 + + +   1 + + + 2 + + +  

G|---------------------------------|---------------------------------|-----------------| 
D|---------------------------------|---------------------------------|---------5-5-----| 
A|-----------------3---------------|-3-------------------------------|-----------------| 
E|-3h5-----5-----5---5-----5-------|---5-----5---3---1-1-1-1-1---3-3-|-3-3-3-----------| 
   1 + + + 2 + + + 3 + + + 4 + + +   1 + + + 2 + + + 3 + + + 4 + + +   1 + + + 2 + + +  

G|---------------------------------|---------------------------------|-----------------| 
D|---------------------------------|---------------------------------|---------5-------| 
A|-----------------3---------------|-3-------------------------------|-----------------| 
E|-3h5-----5---------5-----5-------|---5-----5---3---1-1-1-1-1---3-3-|-3-3-3-----3-----| 
   1 + + + 2 + + + 3 + + + 4 + + +   1 + + + 2 + + + 3 + + + 4 + + +   1 + + + 2 + + +  

G|---------------------------------|---------------------------------|-----------------| 
D|---------------------------------|---------------------------------|---------5-------| 
A|-----------------3---------------|-3-------------------------------|-----------------| 
E|-3h5-----5-----5---5-----5-------|---5-----5---3---1-1-1-1-1---3-3-|-3-3-3-----3-----| 
   1 + + + 2 + + + 3 + + + 4 + + +   1 + + + 2 + + + 3 + + + 4 + + +   1 + + + 2 + + +  

G|---------------------------------|---------------------------------|-----------------| 
D|---------------------------------|-------------------------3---5-5-|-5-5-5-----5-----| 
A|-----------------3---------------|-3-------------------------------|-----------------| 
E|-3h5-----5-----5---5-----5-------|---5---0-5---3---1-1-1-1---------|---------3-------| 
   1 + + + 2 + + + 3 + + + 4 + + +   1 + + + 2 + + + 3 + + + 4 + + +   1 + + + 2 + + +  

This train will take us to the next station. 
G|---------------------------------|---------------------------------|-----------------| 
D|---------------------------------|-------------------------3-------|-----------------| 
A|-----------------3---------------|-3-------------------------------|-----------------| 
E|-3h5-----5-----5---5-----5-----5-|---5-----5---3---1-1-1-1-----3-3-|-3-3-3---5-5-----| 
   1 + + + 2 + + + 3 + + + 4 + + +   1 + + + 2 + + + 3 + + + 4 + + +   1 + + + 2 + + +  

Chorus A 2 "The return of the thin white duke ..." 
G|---------------------------------|---------------------------------|-------------7---| 
D|-------------3-4-5-------------5-|-4-------------------------------|---------------7-| 
A|-3---------------------------5---|---------------------------------|-----------------| 
E|---------------------------------|-------------5/--10----------5/--|-10--------------| 
   1 + + + 2 + + + 3 + + + 4 + + +   1 + + + 2 + + + 3 + + + 4 + + +   1 + + + 2 + + + 

G|---------------------------------|---------------------------------|-----------------| 
D|-------------3-4-5---------------|-4-------------------------------|-----------------| 
A|-3-----------------------------5-|---------------------------------|-5-----------5-0-| 
E|---------------------------------|-------------5/--10------------5-|-----------------| 
   1 + + + 2 + + + 3 + + + 4 + + +   1 + + + 2 + + + 3 + + + 4 + + +   1 + + + 2 + + + 

G|---------------------------------|---------------------------------|-----------------| 
D|-------------4---5-------------5-|-4-------------------------------|-----------------| 
A|-3---------------------------5---|---------------------------------|-5---------------| 
E|---------------------------------|-------------5/--10------------5-|-----------------| 
   1 + + + 2 + + + 3 + + + 4 + + +   1 + + + 2 + + + 3 + + + 4 + + +   1 + + + 2 + + + 

Verse B 1 "Once there were mountains on mountains ..." (Faster rhythm here) 
G|---------------------------------| 
D|---------------------------------| 
A|---------------------------------| 
E|---------------------------------| 
   1 + + + 2 + + + 3 + + + 4 + + +   

G|---------------------------------|---------------------------------| 
D|---------------------------------|---------------------------------| 
A|---------------------------------|---------------------------------| 
E|-3-------3-------3---3---3-------|-3-------3-----0-3---3---3---5-6-| 
   1 + + + 2 + + + 3 + + + 4 + + +   1 + + + 2 + + + 3 + + + 4 + + + 

G|---------------------------------|---------------------------------| 
D|---------------------------------|---------------------------------| 
A|---------------------------------|-5-------------------------------| 
E|-7-------7-------7---7-------7-7-|-------------5---------------0-2-| 
   1 + + + 2 + + + 3 + + + 4 + + +   1 + + + 2 + + + 3 + + + 4 + + + 

G|---------------------------------|---------------------------------| 
D|---------------------------------|---------------------------------| 
A|---------------------------------|---------------------------------| 
E|-3-------3-------3---3---3---0-2-|-3---3---3-----x-3---3---3---0-2-| 
   1 + + + 2 + + + 3 + + + 4 + + +   1 + + + 2 + + + 3 + + + 4 + + + 

G|---------------------------------|---------------------------------| 
D|---------------------------------|---------------------------------| 
A|------------------------/5-------|-2-------2-------2---2-------2-2-| 
E|-3-------3-------3---3-----------|-----2---------------------------| 
   1 + + + 2 + + + 3 + + + 4 + + +   1 + + + 2 + + + 3 + + + 4 + + + 

G|---------------------------------|---------------------------------| 
D|---------------------------------|---------------------------------| 
A|-5----------------------------5--|---------------------2---3---4---| 
E|-------------5-------------------|-3-------3-----0-3---------------| 
   1 + + + 2 + + + 3 + + + 4 + + +   1 + + + 2 + + + 3 + + + 4 + + + 

Pre-Chorus B 1 "Wonderfull, wonderfull, wonder when ..." 
G|---------------------------------|---------------------------------| 
D|---------------------------------|---------------------------------| 
A|-5-----------5-----------5-------|-----------------------------5---| 
E|---------------------------------|-3-------3-----0-3---3---3-------| 
   1 + + + 2 + + + 3 + + + 4 + + +   1 + + + 2 + + + 3 + + + 4 + + + 

G|---------------------------------|-----------------| 
D|-5-------------x-4-------------x-|-3---------------| 
A|---------------------------------|-------------0-2-| \ 
E|---------------------------------|-----------------|  \ 
   1 + + + 2 + + + 3 + + + 4 + + +   1 + + + 2 + + +     \ 
                                                          (x2) 
G|---------------------------------|-----------------|   / 
D|-------------------------7-------|---------4-------|  / 
A|-3-------5-------7---------------|-7---------------| / 
E|---------------------------------|-----------------| 
   1 + + + 2 + + + 3 + + + 4 + + +   1 + + + 2 + + +  

G|---------------------------------|-----------------| 
D|-5-------------x-4-------------x-|-3---------------| 
A|---------------------------------|-------------0-2-| 
E|---------------------------------|-----------------|  
   1 + + + 2 + + + 3 + + + 4 + + +   1 + + + 2 + + +  

G|---------------------------------|-------------------------| 
D|-------------------------7-------|---------4-------5-------| 
A|-3-------5-------7---------------|-7-----------------------| 
E|---------------------------------|-------------------------| 
   1 + + + 2 + + + 3 + + + 4 + + +   1 + + + 2 + + + 3 + + +  

Chorus B 1 "It's not the side effects of the cocaine ..." 
G|---------------------------------|---------------------------------| 
D|-7-------7-------7-----------7---|-----7---7-------7---0---2-------| 
A|---------------------------------|-----------------------------2---| 
E|---------------------------------|---------------------------------| 
   1 + + + 2 + + + 3 + + + 4 + + +   1 + + + 2 + + + 3 + + + 4 + + + 

G|---------------------------------|---------------------------------| 
D|---------------------------------|---------------------------------| 
A|-----2---2-------2---2-----------|-------------------------5---2---| 
E|-------------------------2---3---|-----3---3-------3---3-----------| 
   1 + + + 2 + + + 3 + + + 4 + + +   1 + + + 2 + + + 3 + + + 4 + + + 

G|---------------------------------|---------------------------------| 
D|---------------------------------|---------------------------------| 
A|-----2---2-------2-------2---3---|-----3---3-------3-------4---5---| 
E|---------------------2-----------|---------------------3-----------| 
   1 + + + 2 + + + 3 + + + 4 + + +   1 + + + 2 + + + 3 + + + 4 + + + 

G|---------------------------------|---------------------------------| 
D|---------------x-2---3---4---5---|---------------------5-----------| 
A|-----5---5-----------------------|-------------------------5---2---| 
E|---------------------------------|-----3---3-----3-3---------------| 
   1 + + + 2 + + + 3 + + + 4 + + +   1 + + + 2 + + + 3 + + + 4 + + + 

G|---------------------------------|---------------------------------| 
D|---------------------------------|---------------------------------| 
A|-----2---2-----x-2-------2---3---|-----3---3-----------------------| 
E|---------------------2-----------|---------------0-0---1---2---3---| 
   1 + + + 2 + + + 3 + + + 4 + + +   1 + + + 2 + + + 3 + + + 4 + + + 

G|---------------------------------|---------------------------------| 
D|---------------------------------|---------------------5---7-------| 
A|---------------------------------|---------------------------------| 
E|-----3---3-----x-3---3---4---5---|-----5---5-----5-5-----------5---| 
   1 + + + 2 + + + 3 + + + 4 + + +   1 + + + 2 + + + 3 + + + 4 + + + 

G|---------------------------------|---------------------------------| 
D|---------------------------------|---------------------------------| 
A|---------------------------------|---------------------------------| 
E|-----5---5-------5---5-------5---|-----5---5-----5-5---5-------5---| 
   1 + + + 2 + + + 3 + + + 4 + + +   1 + + + 2 + + + 3 + + + 4 + + + 

Chorus B 2 "I won't let the day pass without her ..." 
G|---------------------------------|---------------------------------| 
D|----------------------------/5---|-----5---5-----5-5---------------| 
A|-2-------2-----x-2---2-----------|---------------------5---3---2---| 
E|---------------------------------|---------------------------------| 
   1 + + + 2 + + + 3 + + + 4 + + +   1 + + + 2 + + + 3 + + + 4 + + + 

G|---------------------------------|---------------------------------| 
D|---------------------------------|---------------------------------| 
A|-----2---2-----x-2---2---2---3---|-----3---3-----x-3-------3---5---| 
E|---------------------------------|---------------------3-----------| 
   1 + + + 2 + + + 3 + + + 4 + + +   1 + + + 2 + + + 3 + + + 4 + + + 

G|---------------------------------|---------------------------------| 
D|---------------x-2---3---4---5---|---------------------5-----------| 
A|-----5---5-----------------------|-------------------------5---0---| 
E|---------------------------------|-----3---3-----3-3---------------| 
   1 + + + 2 + + + 3 + + + 4 + + +   1 + + + 2 + + + 3 + + + 4 + + + 

G|---------------------------------|---------------------------------| 
D|---------------------------------|---------------------3---4---5---| 
A|-2---2---2-----x-2---2---2---3---|-----3---3-----x-3---------------| 
E|---------------------------------|---------------------------------| 
   1 + + + 2 + + + 3 + + + 4 + + +   1 + + + 2 + + + 3 + + + 4 + + + 

G|---------------------------------|-----------------6---------------| 
D|-----5---5-------5---5---6---7---|-----7---7-----------7-----------| 
A|---------------------------------|-------------------------7-------| 
E|---------------------------------|-----------------------------5---| 
   1 + + + 2 + + + 3 + + + 4 + + +   1 + + + 2 + + + 3 + + + 4 + + + 

G|---------------------------------|---------------------------------| 
D|---------------------------------|---------------------------------| 
A|---------------------------------|-----------------------------2---| 
E|-----5---5-------5---5---3---4---|-5-------5-------5---5-----------| 
   1 + + + 2 + + + 3 + + + 4 + + +   1 + + + 2 + + + 3 + + + 4 + + + 

Chorus B 3 "Does my face show some kind of glow? ..." 
G|---------------------------------|---------------------------------| 
D|---------------------------------|---------------5-5---------------| 
A|-----2---2-----x-2-------2-------|---------------------5---3---2---| 
E|---------------------2-------3---|-----3---3-----------------------| 
   1 + + + 2 + + + 3 + + + 4 + + +   1 + + + 2 + + + 3 + + + 4 + + + 

G|---------------------------------|---------------------------------| 
D|---------------------------------|---------------------------------| 
A|-----2---2-----------2-------3---|-----3---3-----3-3---2---3---5---| 
E|---------------0-2-------2-------|---------------------------------| 
   1 + + + 2 + + + 3 + + + 4 + + +   1 + + + 2 + + + 3 + + + 4 + + + 

G|---------------------------------|---------------------------------| 
D|---------------x-2---3---4---5---|-------------------------5-------| 
A|-----5---5-----------------------|---------------------5-------2---| 
E|---------------------------------|-----3---3-----x-3---------------| 
   1 + + + 2 + + + 3 + + + 4 + + +   1 + + + 2 + + + 3 + + + 4 + + + 

G|---------------------------------|---------------------------------| 
D|---------------------------------|-----------------------------3-h-| 
A|-----2---2-----------2---2---3---|-----3---3-----3-3-------3-------| 
E|---------------2-2---------------|---------------------3-----------| 
   1 + + + 2 + + + 3 + + + 4 + + +   1 + + + 2 + + + 3 + + + 4 + + + 

G|---------------------------------|--------/7------/9---7-----------| 
D|-5-------5-----x-5---5---6---7---|-----7-------7-----------9---7---| 
A|---------------------------------|---------------------------------| 
E|---------------------------------|---------------------------------| 
   1 + + + 2 + + + 3 + + + 4 + + +   1 + + + 2 + + + 3 + + + 4 + + + 

G|---------------------------------|---------------------------------| 
D|-----5-------5-------------------|---------------------------------| 
A|---------7-------7---5-------5---|---------------------------------| 
E|-------------------------7-------|-5-------5-----x-5---5---5--/7---| 
   1 + + + 2 + + + 3 + + + 4 + + +   1 + + + 2 + + + 3 + + + 4 + + + 

Chorus B 4 "It's too late ..." 
G|---------------------------------|---------------------------------| 
D|---------------------------------|---------------------------------| 
A|---------------------------------|-----------------------------2---| 
E|-----7---7-----x-7---7-------3---|-----3---3-----x-3---3---5-------| 
   1 + + + 2 + + + 3 + + + 4 + + +   1 + + + 2 + + + 3 + + + 4 + + + 

G|---------------------------------|---------------------------------| 
D|---------------------------------|---------------------------------| 
A|-----2---2-----x-2-------2---3---|-----3---3-----x-3-------4---5---| 
E|---------------------2-----------|---------------------3-----------| 
   1 + + + 2 + + + 3 + + + 4 + + +   1 + + + 2 + + + 3 + + + 4 + + + 

G|---------------------------------|---------------------------------| 
D|---------2-----2-3---3---4---5---|-----5---5-------5---------------| 
A|-----5---------------------------|---------------5-----5---3---2---| 
E|---------------------------------|---------------------------------| 
   1 + + + 2 + + + 3 + + + 4 + + +   1 + + + 2 + + + 3 + + + 4 + + + 

G|---------------------------------|---------------------------------| 
D|---------------------------------|---------------------------------| 
A|---------2-------2-------2---3---|---------3-------3---------------| 
E|-----2---------2-----2-----------|-----3---------3-----0---1---2---| 
   1 + + + 2 + + + 3 + + + 4 + + +   1 + + + 2 + + + 3 + + + 4 + + + 

G|---------------------------------|-----------------------------6---| 
D|---------5-----x-5---5---6---7---|-----7---7-------7---7---7-------| 
A|---------------------------------|---------------------------------| 
E|-3-------------------------------|---------------------------------| 
   1 + + + 2 + + + 3 + + + 4 + + +   1 + + + 2 + + + 3 + + + 4 + + + 

G|---------------------------------|---------------------------------| 
D|-----7---------------------------|---------------------------------| 
A|---------7---------------7-------|-----------------------------2---| 
E|-----------------5---5-----------|-5-------5-------5---5-----------| 
   1 + + + 2 + + + 3 + + + 4 + + +   1 + + + 2 + + + 3 + + + 4 + + + 

Solo 
G|---------------------------------|---------------------------------| 
D|---------------------------------|---------5-------5---------------| 
A|-----2---2-------2---2---2-------|---------------5-----5---3---2---| 
E|-----------------------------3---|-----3---------------------------| 
   1 + + + 2 + + + 3 + + + 4 + + +   1 + + + 2 + + + 3 + + + 4 + + + 

G|-----------------4---------------|---------------5-5----------/7---| 
D|---------------------------------|---------------------------------| 
A|-----2---2-----2-----2---2---3---|-----3---3-----------3---4-------| 
E|---------------------------------|---------------------------------| 
   1 + + + 2 + + + 3 + + + 4 + + +   1 + + + 2 + + + 3 + + + 4 + + + 

G|---------------------------------|---------------------------------| 
D|-----------------3---3---4---5---|-----5---5-------5---------------| 
A|-----5---7-----------------------|---------------5-----5---3---2---| 
E|---------------------------------|---------------------------------| 
   1 + + + 2 + + + 3 + + + 4 + + +   1 + + + 2 + + + 3 + + + 4 + + + 

G|---------------------------------|---------------------------------| 
D|---------------------------------|---------------------2---3---4---| 
A|-----2---2-----x-2-------2---3---|-----3---3-----x-3---------------| 
E|---------------------2-----------|---------------------------------| 
   1 + + + 2 + + + 3 + + + 4 + + +   1 + + + 2 + + + 3 + + + 4 + + + 

G|---------------------------------|---------------------------------| 
D|-5-------5-----x-5---5---6---7---|-----7---7-------7---7---7---7---| 
A|---------------------------------|-0-------------------------------| 
E|---------------------------------|---------------------------------| 
   1 + + + 2 + + + 3 + + + 4 + + +   1 + + + 2 + + + 3 + + + 4 + + + 

G|---------12--13--14--------------|---------------------------------| 
D|-------------------------5-------|---------------------------------| 
A|-----12--------------12------7---|-------------------------0---1---| 
E|---------------------------------|-5-------5-------5---5-----------| 
   1 + + + 2 + + + 3 + + + 4 + + +   1 + + + 2 + + + 3 + + + 4 + + + 

G|-----4-----------4---4---2-------|---------------------------------| 
D|-----------------------------5---|---------5-----x-5---------------| 
A|-2-------2-----------------------|---------------------5---3---2---| 
E|---------------------------------|---------------------------------| 
   1 + + + 2 + + + 3 + + + 4 + + +   1 + + + 2 + + + 3 + + + 4 + + + 

                |--3--| 
G|---------------x-4-4-------------|---------------------------------| 
D|---------------------------------|---------------------------------| 
A|---------2-----------2---2---3---|-----3---3-----x-3-------3---5---| 
E|---------------------------------|---------------------3-----------| 
   1 + + + 2 + + + 3 + + + 4 + + +   1 + + + 2 + + + 3 + + + 4 + + + 

G|---------------------------------|---------------------------------| 
D|---------------------2---3---5---|-----5---5-------5---5-----------| 
A|-----5---5-------5---------------|-------------------------5---2---| 
E|---------------------------------|---------------------------------| 
   1 + + + 2 + + + 3 + + + 4 + + +   1 + + + 2 + + + 3 + + + 4 + + + 

G|---------------------------------|---------------------------------| 
D|---------------------------------|-------------------------3---4---| 
A|-----2---2-----------2---2---3---|-----3---3-----x-3---------------| 
E|---------------x-2---------------|---------------------------------| 
   1 + + + 2 + + + 3 + + + 4 + + +   1 + + + 2 + + + 3 + + + 4 + + + 

G|---------------------------------|---------------------------------| 
D|-5---5---5-----x-5---5---6---7---|-----7---7-------7---7-------7---| 
A|---------------------------------|---------------------------------| 
E|---------------------------------|---------------------------------| 
   1 + + + 2 + + + 3 + + + 4 + + +   1 + + + 2 + + + 3 + + + 4 + + + 

Chorus B 5 "But it's not the side effects of the cocaine ..." 
G|-----------------6~------6~------|---------------------------------| 
D|-----7---7---------7~------7~\---|---------------------------------| 
A|---------------------------------|---------------------------------| 
E|---------------------------------|-3-/-5---5-------5---5---5---6---| 
   1 + + + 2 + + + 3 + + + 4 + + +   1 + + + 2 + + + 3 + + + 4 + + + 

G|---------------------------------|---------------------------------| 
D|---------------------------------|-----5---5-----x-5---------------| 
A|---------------------------------|---------------------5---3---2---| 
E|-7-------7-----x-7---7-------3---|---------------------------------| 
   1 + + + 2 + + + 3 + + + 4 + + +   1 + + + 2 + + + 3 + + + 4 + + + 

G|-----4---4-----------4-----------|-----5---5-----------------------| 
D|---------------------------------|---------------------------------| 
A|---------------x-2-------2---3---|---------------x-3---3---4---5~--| 
E|---------------------------------|---------------------------------| 
   1 + + + 2 + + + 3 + + + 4 + + +   1 + + + 2 + + + 3 + + + 4 + + + 

G|---------------------------------|---------------------------------| 
D|---------2---2---3---3---4---5---|-----5---5-----x-5---------------| 
A|-----5---------------------------|---------------------7---5-------| 
E|---------------------------------|-----------------------------7---| 
   1 + + + 2 + + + 3 + + + 4 + + +   1 + + + 2 + + + 3 + + + 4 + + + 

G|---------------------------------|---------------------------------| 
D|---------9-----------9-----------|---------------------------------| 
A|---------------------------------|-------------------------8---9---| 
E|-----7---------x-7-------7---8---|-----8---8-------8---8-----------| 
   1 + + + 2 + + + 3 + + + 4 + + +   1 + + + 2 + + + 3 + + + 4 + + + 

G|---------------------------------|---------------------------------| 
D|---------------------------------|-----------------------------14--| 
A|-10------10----x-10--10--11--12--|-----12--12------12--12----------| 
E|---------------------------------|---------------------------------| 
   1 + + + 2 + + + 3 + + + 4 + + +   1 + + + 2 + + + 3 + + + 4 + + + 

G|---------------------------------|---------------------------------| 
D|-----11--------------------------|---------------------------------| 
A|---------12--10------7---5-------|---------------------------------| 
E|-----------------------------8---|-5-------5-----x-5---5---5-/-6-/-| 
   1 + + + 2 + + + 3 + + + 4 + + +   1 + + + 2 + + + 3 + + + 4 + + + 

Chorus B 6 "But I won't let the pass without her ..." 
G|---------------------------------|---------------------------------| 
D|---------------------7---6---5---|-----5---5-----x-5---------------| 
A|---------------------------------|---------------------5---3---2---| 
E|-7---7---7-----x-7---------------|---------------------------------| 
   1 + + + 2 + + + 3 + + + 4 + + +   1 + + + 2 + + + 3 + + + 4 + + + 

G|---------------------------------|---------------------------------| 
D|---------------------------------|---------------------------------| 
A|-----2---2-----x-2---2---2---3---|-----3---3-----x-3-------3---5---| 
E|---------------------------------|---------------------3-----------| 
   1 + + + 2 + + + 3 + + + 4 + + +   1 + + + 2 + + + 3 + + + 4 + + + 

G|---------------------------------|---------------------2---3---4---| 
D|---------------x-2---2---3---5---|-----5---5-----x-5---------------| 
A|-----5---5-----------------------|---------------------------------| 
E|---------------------------------|---------------------------------| 
   1 + + + 2 + + + 3 + + + 4 + + +   1 + + + 2 + + + 3 + + + 4 + + + 

G|---------------------2---4---5---|-----5---7---8---9---------------| 
D|-----4---------4-4---------------|-----------------------------7---| 
A|---------2-----------------------|---------------------7---5-------| 
E|---------------------------------|---------------------------------| 
   1 + + + 2 + + + 3 + + + 4 + + +   1 + + + 2 + + + 3 + + + 4 + + + 

G|---------------------------------|---------------------------------| 
D|-5-------5-----x-5---5---6---7---|-----7---7-------7---7-------7---| 
A|---------------------------------|---------------------------------| 
E|---------------------------------|---------------------------------| 
   1 + + + 2 + + + 3 + + + 4 + + +   1 + + + 2 + + + 3 + + + 4 + + + 

G|---------------------------------|---------------------------------| 
D|-----7---7-------7---7-----------|---------------------------------| 
A|-------------------------7~------|---------------------------------| 
E|---------------------------------|-5-------5-----x-5---5---5-/-6-/-| 
   1 + + + 2 + + + 3 + + + 4 + + +   1 + + + 2 + + + 3 + + + 4 + + + 

Chorus B 7 "Does my face show some kind of glow? ..." 
G|---------------------------------|---------------------------------| 
D|-------------------------7---5---|-----5---5-----x-5---------------| 
A|---------------------5-----------|---------------------7---5-------| 
E|-7---7---7-----x-7---------------|-----------------------------7---| 
   1 + + + 2 + + + 3 + + + 4 + + +   1 + + + 2 + + + 3 + + + 4 + + + 

G|---------------------------------|---------------x-5---------------| 
D|---------9-----------9-----------|---------10----------------------| 
A|---------------------------------|---------------------3---4---5---| 
E|-----7---------x-7-------7---8---|-----8---------------------------| 
   1 + + + 2 + + + 3 + + + 4 + + +   1 + + + 2 + + + 3 + + + 4 + + + 

G|---------------------------------|---------------------------------| 
D|---------2~------3---3---4---5---|-----5---5-----5-5---------------| 
A|-----5---------------------------|---------------------7---5-------| 
E|---------------------------------|-----------------------------7---| 
   1 + + + 2 + + + 3 + + + 4 + + +   1 + + + 2 + + + 3 + + + 4 + + + 

G|---------------------------------|---------------------------------| 
D|---------------------------------|---------------------------------| 
A|---------------------------------|-------------------------8---9---| 
E|-----7---7-----x-7---7---7---8---|-----8---8-------8---8-----------| 
   1 + + + 2 + + + 3 + + + 4 + + +   1 + + + 2 + + + 3 + + + 4 + + + 

G|---------------------------------|---------------------------------| 
D|---------------------------------|---------------------------------| 
A|-10--10--10------10--10--11--12--|-----12--12------12--12------12--| 
E|---------------------------------|---------------------------------| 
   1 + + + 2 + + + 3 + + + 4 + + +   1 + + + 2 + + + 3 + + + 4 + + + 

G|---------------------------------|---------------------------------| 
D|---------------------------------|---------7-----x-7---7-----------| 
A|-----12--12------12--12----------|---------------------------------| 
E|-------------------------12\-----|-5--------------------------/7---| 
   1 + + + 2 + + + 3 + + + 4 + + +   1 + + + 2 + + + 3 + + + 4 + + + 

Outro "It's too late ..." 
G|---------------------------------|---------------------------------| 
D|---------------------------------|---------------------------------| 
A|---------------------------------|---------------------5---3---2---| 
E|-----7---7-----x-7---7-------3---|-----3---3-----x-3---------------| 
   1 + + + 2 + + + 3 + + + 4 + + +   1 + + + 2 + + + 3 + + + 4 + + + 

G|---------------------------------|---------------------------------| 
D|---------------------------------|---------------------------------| 
A|-----2---2-----x-2-------2---3---|-----3---3-------3---3-/-4---5---| 
E|---------------------2-----------|---------------------------------| 
   1 + + + 2 + + + 3 + + + 4 + + +   1 + + + 2 + + + 3 + + + 4 + + + 

G|---------------------------------|---------------------------------| 
D|---------------------2---3---5---|-----5---5-----x-5---------------| 
A|-----5---5-------5---------------|---------------------7---5-------| 
E|---------------------------------|-----------------------------7---| 
   1 + + + 2 + + + 3 + + + 4 + + +   1 + + + 2 + + + 3 + + + 4 + + + 

G|---------------------------------|---------------------------------| 
D|---------------------------------|---------------------------------| 
A|---------------------------------|-------------------------8---9---| 
E|-----7---7-----x-7---7---7---8---|-----8---8-------8---8-----------| 
   1 + + + 2 + + + 3 + + + 4 + + +   1 + + + 2 + + + 3 + + + 4 + + + 

G|---------------------------------|---------------------------------| 
D|---------------------------------|----------------------------/11--| 
A|-10--10--10------10--10--11--12--|-----12--12----x-12--12----------| 
E|---------------------------------|---------------------------------| 
   1 + + + 2 + + + 3 + + + 4 + + +   1 + + + 2 + + + 3 + + + 4 + + + 

G|-----9---------------------------|---------------------------------| 
D|---------------------------------|---------------------------------| 
A|-----------------7-p-5---0---4---|---------------------------------| (Fade) 
E|---------------------------------|-5-------5-----x-5---5------/7---| 
   1 + + + 2 + + + 3 + + + 4 + + +   1 + + + 2 + + + 3 + + + 4 + + + 

*********************************** 

| /       Slide up 
| \       Slide down 
| h       Hammer-on 
| p       Pull-off 
| x       Dead note 
| ~       Let ring 
| |--3--| Triplet 

*********************************** 
	  

No existe una video leccione para esta canción

request
Aumentar uno tonoAumentar uno tono
Aumentar uno semi-tonoAumentar uno semi-tono
Disminuir uno semi-tonoDisminuir uno semi-tono
Disminuir uno tonoDisminuir uno semi-tono
LosAcordes
Buscar
auto avanzar rasgueos aumentar disminuir cambiar color esconder acordes gráficos
losacordes exhibir acordes losacordes youTube video losacordes ocultar tabs losacordes ir hacia arriba losacordes