David Bowie

Início > David Bowi... > acordes

Panic In Detroit Tablatura Bajo

David Bowie

Dificultad:Ningún gradoNingún grado

robepoiel

tuner correct add songbook print version text version salvar en e-mail
acordesukuleletablaturabaixobateríaarmónicaflautacavacopiano Guitar Pro
acordes

Panic In Detroit

Áño: 2002 - Álbum: Best of Bowie

	  
Intro Bass kicks in at 0:05 
G|---------------------------------|---------------------------------| 
D|-------------------5-5---5---5/--|-7-------7---7-------7---7-------| 
A|-2-----2-2---2-------------------|-------7-----------7---------7\--| 
E|---------------------------------|---------------------------------| 
   1 + + + 2 + + + 3 + + + 4 + + +   1 + + + 2 + + + 3 + + + 4 + + + 

G|---------------------------------|---------------------------------| 
D|-------------------5-5---5---5/--|-7-------7---7-------7---7-------| 
A|-2-------2---2-------------------|-------7-----------7---------7\--| 
E|-------2-------------------------|---------------------------------| 
   1 + + + 2 + + + 3 + + + 4 + + +   1 + + + 2 + + + 3 + + + 4 + + + 

G|---------------------------------|---------------------------------| 
D|-------------------5-5---5---5/--|-7-------7---7-------7---7---7---| 
A|-2-------2---2-------------------|-------7-----------7-------------| 
E|-------2-------------------------|---------------------------------| 
   1 + + + 2 + + + 3 + + + 4 + + +   1 + + + 2 + + + 3 + + + 4 + + + 

verse 1 "Looked a lot like Che Guevara ..." 
G|-7---5---4-----------------------|-------------6---9---7---6-------| 
D|-------------7---5---4-------4---|-----6---9-------------------9---| 
A|-------------------------7-------|-7-------------------------------| (x2) 
E|---------------------------------|---------------------------------| 
   1 + + + 2 + + + 3 + + + 4 + + +   1 + + + 2 + + + 3 + + + 4 + + + 

G|---------------------------------|---------------------------------| 
D|---------------5-------7---7-4---|---------------5-------7-----7---| 
A|-----------5-7---0-------------7-|-----------5-7---0---------7-----| 
E|-3-----7-------------------------|-3-----7-------------------------| 
   1 + + + 2 + + + 3 + + + 4 + + +   1 + + + 2 + + + 3 + + + 4 + + + 

Chorus 1 "Panic in Detroit ..." 
G|---------------------------------|------/9---7---------------------| 
D|-------7---7---------------------|-------------9-7-----------------| 
A|-5-----------5-5-----------------|-5-------------------------------| 
E|-----------------8-----8---7-8---|-----------------8-----8---8-8---| 
   1 + + + 2 + + + 3 + + + 4 + + +   1 + + + 2 + + + 3 + + + 4 + + + 

G|---------------------------------|-9~------------------------------| 
D|-----------------5~--------------|-7~------------------------------| 
A|-5-----5.--0-5.------------------|-0~------------------------------| 
E|---------------------------------|---------------------------------| 
   1 + + + 2 + + + 3 + + + 4 + + +   1 + + + 2 + + + 3 + + + 4 + + + 

G|---------------------------------| 
D|---------------------------------| 
A|---------------------------------| 
E|---------------------------------| 
   1 + + + 2 + + + 3 + + + 4 + + + 

Pre-verse "Panic in Detroit ..." 
G|-7---5---4-----------------------|-------------6---9---7---6-------| 
D|-------------7---5---4-------4---|-----6---9-------------------9---| 
A|-------------------------7-------|-7-------------------------------| (x2) 
E|---------------------------------|---------------------------------| 
   1 + + + 2 + + + 3 + + + 4 + + +   1 + + + 2 + + + 3 + + + 4 + + + 

verse 2 "He laughed at accidental sirens ..." 
G|-7---5---4-----------------------|-------------6---9---7---6-------| 
D|-------------7---5---4-------4---|-----6---9-------------------9---| 
A|-------------------------7-------|-7-------------------------------| (x2) 
E|---------------------------------|---------------------------------| 
   1 + + + 2 + + + 3 + + + 4 + + +   1 + + + 2 + + + 3 + + + 4 + + + 

G|---------------------------------|---------------------------------| 
D|---------------5-------7---7-4---|-----------------------7---7-----| 
A|-------2---5-7---0-------------7-|-------2---3-4-5-------------7---| 
E|-----3---------------------------|-3---------------5---------------| 
   1 + + + 2 + + + 3 + + + 4 + + +   1 + + + 2 + + + 3 + + + 4 + + + 

Chorus 2 "Panic in Detroit ..." 
G|---------------------------------|---------------------------------| 
D|-------7-----7-------------------|---------------------------------| 
A|-5---5-----5---5-3-----2---3-4---|-5-----5-.---5-------------------| 
E|---------------------------------|-----------------8-----8---7-8---| 
   1 + + + 2 + + + 3 + + + 4 + + +   1 + + + 2 + + + 3 + + + 4 + + + 

G|---------------------------------|-9~------------------------------| 
D|-----------------5~--------------|-7~------------------------------| 
A|-5-----5.--0-5.------------------|---------------------------------| 
E|---------------------------------|---------------------------------| 
   1 + + + 2 + + + 3 + + + 4 + + +   1 + + + 2 + + + 3 + + + 4 + + + 

G|---------------------------------| 
D|---------------------------------| 
A|---------------------------------| 
E|---------------------------------| 
   1 + + + 2 + + + 3 + + + 4 + + + 

Pre-verse "Panic in Detroit ..." 
G|-7---5---4-----------------------|-------------6-9---9-7---6-------| 
D|-------------7---5---4-------4---|-----6---9-------------------9---| 
A|-------------------------7-------|-7-------------------------------| (x2) 
E|---------------------------------|---------------------------------| 
   1 + + + 2 + + + 3 + + + 4 + + +   1 + + + 2 + + + 3 + + + 4 + + + 

Bridge "Putting on some clothes I made my way to school ..." 
G|---------------------------------|---------------------------------| 
D|------------/9-------7-----------|---------5-----------5---5-------| 
A|-5-------------------------9-7---|-3-----------------5---------5---| 
E|---------------------------------|---------------------------------| 
   1 + + + 2 + + + 3 + + + 4 + + +   1 + + + 2 + + + 3 + + + 4 + + + 

G|---------------------------------|---------------------------------| 
D|---------------------------------|-5---------5---------5---5-------| 
A|-2---------------3---------------|-------------------5-------------| 
E|---------------------------------|---------------------------------| 
   1 + + + 2 + + + 3 + + + 4 + + +   1 + + + 2 + + + 3 + + + 4 + + + 

G|---------------7---7-9---7-------|-------5-----5-------5-----------| 
D|------------/9-------------9-7\--|-----------5-------------5-------| 
A|-5-------------------------------|-3---------------------------5---| 
E|---------------------------------|---------------------------------| 
   1 + + + 2 + + + 3 + + + 4 + + +   1 + + + 2 + + + 3 + + + 4 + + + 

G|---------------------------------|-------------7-----5-------7-----| 
D|---------------------------------|-----------------------7-----7---| 
A|-2---------------3---------------|-5-------------------------------| 
E|---------------------------------|---------------------------------| 
   1 + + + 2 + + + 3 + + + 4 + + +   1 + + + 2 + + + 3 + + + 4 + + + 

G|---------------------------------|---------------5---5---7---5-----| 
D|-5---------------5---4---5---7---|-------------7---------------7---| 
A|---------------------------------|-5-------------------------------| 
E|---------------------------------|---------------------------------| 
   1 + + + 2 + + + 3 + + + 4 + + +   1 + + + 2 + + + 3 + + + 4 + + + 

G|---------------------------------|---------------------------------| 
D|-5~------------------------------|---------------------------------| 
A|---------------------------------|---------------------------------| 
E|---------------------------------|---------------------------------| 
   1 + + + 2 + + + 3 + + + 4 + + +   1 + + + 2 + + + 3 + + + 4 + + + 

G|---------------------------------| 
D|---------------------------------| 
A|---------------------------------| 
E|---------------------------------| 
   1 + + + 2 + + + 3 + + + 4 + + + 

Intro 
G|---------------------------------|---------------------------------| 
D|-------------------5-5---5---5/--|-7-------7---7-------7---7-------| 
A|-2-----2-2---2-------------------|-------7-----------7---------7\--| 
E|---------------------------------|---------------------------------| 
   1 + + + 2 + + + 3 + + + 4 + + +   1 + + + 2 + + + 3 + + + 4 + + + 

G|---------------------------------|---------------------------------| 
D|-------------------5-5---5---5/--|-7-------7---7-------7---7-------| 
A|-2-------2---2-------------------|-------7-----------7---------7\--| 
E|-------2-------------------------|---------------------------------| 
   1 + + + 2 + + + 3 + + + 4 + + +   1 + + + 2 + + + 3 + + + 4 + + + 

G|---------------------------------|---------------------------------| 
D|-------------------5-5---5---5/--|-7-------7---7-------7---7-------| 
A|-2-----2-2---2-------------------|-------7-----------7---------7---| 
E|---------------------------------|---------------------------------| 
   1 + + + 2 + + + 3 + + + 4 + + +   1 + + + 2 + + + 3 + + + 4 + + + 

verse 3 "Having scored a trillion dollars ..." 
G|-7---5---4-----------------------|-------------6-9---9-7---6-------| 
D|-------------7---5---4-------4---|-----6---9-------------------9---| 
A|-------------------------7-------|-7-------------------------------| (x2) 
E|---------------------------------|---------------------------------| 
   1 + + + 2 + + + 3 + + + 4 + + +   1 + + + 2 + + + 3 + + + 4 + + + 

G|---------------------------------|---------------------------------| 
D|---------------5-------7---7-4---|-----------------------7-----7---| 
A|-----------5-7---0-------------7-|-------2---3-4-5-----------7-----| 
E|-3----/7-------------------------|-3---------------5---------------| 
   1 + + + 2 + + + 3 + + + 4 + + +   1 + + + 2 + + + 3 + + + 4 + + + 

Chorus 3 "Panic in Detroit ..." 
G|---------------------------------|---------------------------------| 
D|-------7---7---------------------|-------7-----7-------------------| 
A|-5-----------5-5-3-3---2---3---4-|-5---------5-----5-------2---3---| 
E|---------------------------------|---------------------------------| 
   1 + + + 2 + + + 3 + + + 4 + + +   1 + + + 2 + + + 3 + + + 4 + + + 

G|---------------------------------|-9~------------------------------| 
D|-----------------5~--------------|-7~------------------------------| 
A|-5-----5.--0-5.------------------|---------------------------------| 
E|---------------------------------|---------------------------------| 
   1 + + + 2 + + + 3 + + + 4 + + +   1 + + + 2 + + + 3 + + + 4 + + + 

G|---------------------------------| 
D|---------------------------------| 
A|---------------------------------| 
E|---------------------------------| 
   1 + + + 2 + + + 3 + + + 4 + + + 

Pre-verse "Panic in Detroit ..." 
G|-7---5---4-----------------------|-------------6-9---9-7---6-------| 
D|-------------7---5---4-------4---|-----6---9-------------------9---| 
A|-------------------------7-------|-7-------------------------------| (x2) 
E|---------------------------------|---------------------------------| 
   1 + + + 2 + + + 3 + + + 4 + + +   1 + + + 2 + + + 3 + + + 4 + + + 

G|---------------------------------|---------------------------------| 
D|---------------------------------|---------------------------------| 
A|---------------------------------|---------------------------------| 
E|---------------------------------|---------------------------------| 
   1 + + + 2 + + + 3 + + + 4 + + +   1 + + + 2 + + + 3 + + + 4 + + + 

Outro 
G|---------------------------------|---------------------------------| 
D|-------------------5-5---5---5/--|-7-------7---7-------7---7-------| 
A|-2-------2---2-------------------|-------7-----------7---------7\--| (x4) 
E|-------2-------------------------|---------------------------------| 
   1 + + + 2 + + + 3 + + + 4 + + +   1 + + + 2 + + + 3 + + + 4 + + + 

G|---------------------------------|---------------------------------| 
D|-------------------5-5---5---5/--|-7-------7---7-----7\5-5\4-4\2-2-| 
A|-2-------2---2-------------------|-------7-------------------------| 
E|-------2-------------------------|---------------------------------| 
   1 + + + 2 + + + 3 + + + 4 + + +   1 + + + 2 + + + 3 + + + 4 + + + 

G|---------------------------------|---------------------------------| 
D|-------------------5-5---5---5/--|-7-------7---7-------7---7-------| 
A|-2-------2---2-------------------|-------7-----------7---------7\--| (x8) And fade 
E|-------2-------------------------|---------------------------------| 
   1 + + + 2 + + + 3 + + + 4 + + +   1 + + + 2 + + + 3 + + + 4 + + + 

*********************************** 

| /  Slide up 
| \  Slide down 
| .  Sttacato 
| ~  Let ring 

*********************************** 
	  

No existe una video leccione para esta canción

request
LosAcordes
Buscar
auto avanzar rasgueos aumentar disminuir cambiar color esconder acordes gráficos
losacordes exhibir acordes losacordes youTube video losacordes ocultar tabs losacordes ir hacia arriba losacordes