David Bowie

Início > David Bowi... > acordes

I Took A Trip On A Gemini Spacecraft Tablatura Bajo

David Bowie

Dificultad:Ningún gradoNingún grado

tuner correct add songbook print version text version salvar en e-mail
acordesukuleletablaturabaixobateríaarmónicaflautacavacopiano Guitar Pro
acordes

I Took A Trip On A Gemini Spacecraft

	  

Artist : 
Title  : 
Album  : Heathen

Tabbed by : Hubert Kot


/////////verse/////////

00:08 ( x1 )
G-|---------------------------------------------------------------------------------|
D-|---------------------------------------------------------------------------------|
A-|---------------------------------------------------------------------------------|
E-|-33-3-3-33---3-3-33-3-3-33-------------------------------------------------------|

00:14 ( x4 )
G-|---------------------------------------------------------------------------------|
D-|---------------------------------------------------------------------------------|
A-|---------------------------------------------------------------------------------|
E-|-3-3-33-3-3-33--3-3-33-3-3-33----------------------------------------------------|


////////pre-chorus////////

00:42  ( x1 )
G-|---------------------------------------------------------------------------------|
D-|---------------------------------------------------------------------------------|
A-|---------------------------------------------------------------------------------|
E-|-3-3-55-5-5-55-5-5-88--8-8-88--8-8-33--3-3--33--3-3-33--3-3-33--3-3--------------|

////////chorus//////////


00:57 ( x4 )
G-|---------------------------------------------------------------------------------|
D-|--------5-5h7-5------------------------------------------------------------------|
A-|--3--/7--------------------------------------------------------------------------|
E-|---------------------------------------------------------------------------------|


01:10  

G-|---------------------------------------------------------------------------------|
D-|---------------------------------------------------------------------------------|
A-|---------------------------------------------------------------------------------|
E-|-33-3-3-33---3-3-33-3-3-33-------------------------------------------------------|

G-|---------------------------------------------------------------------------------|
D-|---------------------------------------------------------------------------------|
A-|---------------------------------------------------------------------------------|
E-|-3-3-33-3-3-33--3-3-33-3-3-33----------------------------------------------------|


01:42
G-|---------------------------------------------------------------------------------|
D-|---------------------------------------------------------------------------------|
A-|---------------------------------------------------------------------------------|
E-|-3-3-55-5-5-55-5-5-88--8-8-88--8-8-33--3-3--33--3-3-33--3-3-33--3-3--------------|

01:57
G-|---------------------------------------------------------------------------------|
D-|--------5-5h7-5------------------------------------------------------------------|
A-|--3--/7--------------------------------------------------------------------------|
E-|---------------------------------------------------------------------------------|


02:11
G-|---------------------------------------------------------------------------------|
D-|---------------------------------------------------------------------------------|
A-|---------------------------------------------------------------------------------|
E-|-33-3-3-33---3-3-33-3-3-33-------------------------------------------------------|

G-|---------------------------------------------------------------------------------|
D-|---------------------------------------------------------------------------------|
A-|---------------------------------------------------------------------------------|
E-|-3-3-33-3-3-33--3-3-33-3-3-33----------------------------------------------------|

02:45
G-|---------------------------------------------------------------------------------|
D-|---------------------------------------------------------------------------------|
A-|---------------------------------------------------------------------------------|
E-|-3-3-55-5-5-55-5-5-88--8-8-88--8-8-33--3-3--33--3-3-33--3-3-33--3-3--------------|


03:00      2nd chorus ( x1 )

G-|---------------------------------------------------------------------------------|
D-|--------5~--------------5-7/9--7-5------------5~--------------5-5h7-5------------|
A-|--3~--7------7----3~--7---------------3~---7-------7----3--/7--------------------|
E-|-----------------------------------------------------------------------9\--------|

03:17 till the end
G-|---------------------------------------------------------------------------------|
D-|---------------------------------------------------------------------------------|
A-|---------------------------------------------------------------------------------|
E-|-33-3-3-33---3-3-33-3-3-33-------------------------------------------------------|

G-|---------------------------------------------------------------------------------|
D-|---------------------------------------------------------------------------------|
A-|---------------------------------------------------------------------------------|
E-|-3-3-33-3-3-33--3-3-33-3-3-33----------------------------------------------------|

This song is quite easy but it's really great. I hope you will enjoy it.  

            Jumped into your Gemini...

	  

No existe una video leccione para esta canción

request
LosAcordes
Buscar
auto avanzar rasgueos aumentar disminuir cambiar color esconder acordes gráficos
losacordes exhibir acordes losacordes youTube video losacordes ocultar tabs losacordes ir hacia arriba losacordes