Crazy Town

Início > Crazy Town > acordes

Butterfly Tablatura Bajo

Crazy Town

Dificultad:Ningún gradoNingún grado

tuner correct add songbook print version text version salvar en e-mail
acordesukuleletablaturabaixobateríaarmónicaflautacavacopiano Guitar Pro
acordes

Butterfly

	  

 - 
standard tuning

play this pretty much the whole time
G -----------17---------16---------14--------14----14-------------17---------17-------------19---------19----------
D ---------------14---------14---------14--------------14-------------17---------17-------------19---------19------
A ----0--------------0----------0----------0----0----------0--15----------15---------15/17----------17---------17--
E -----------------------------------------------------------------------------------------------------------------

G -----------17---------16---------14--------14----14-------------14----------14-----(14)/(16)---16---------16-----------
D ---------------14---------14---------14--------------14-------------15----------15-(15)/(17)-------17---------17-------
A ----0--------------0----------0----------0----0----------0--15----------15----------15 / 17-------------17---------17--
E -----------------------------------------------------------------------------------------------------------------------

G -----------17----------16--------14---------14-----14--------------17----------17-------------19----------19-----------
D ---------------14----------14--------14----------------14--------------17----------17-------------19----------19-------
A ----12-------------12----------12--------12----12----------12--15----------15----------15/17----------17----------17---
E -----------------------------------------------------------------------------------------------------------------------

G -----------17----------16----------14---------14-----14--------------14----------14-----(14)/(16)---
D ---------------14----------14----------14----------------14--------------15----------15-(15)/(17)---
A ----12-------------12----------12----------12----12----------12--15----------15----------15 / 17----
E ----------------------------------------------------------------------------------------------------

thats pretty much it. it should be right, just listen to the song to figure out where the rests are.
i know flea wrote the song, and i never denied him the credit..so if you comment on this tab dont rate it just because flea wrote it and crazytown copied it.
 questions or comments send to [email protected]

	  

No existe una video leccione para esta canción

request
LosAcordes
Buscar
auto avanzar rasgueos aumentar disminuir cambiar color esconder acordes gráficos
losacordes exhibir acordes losacordes youTube video losacordes ocultar tabs losacordes ir hacia arriba losacordes