Café Tacuba

Início > Café Tacub... > acordes

Eres Tablatura Bajo

Café Tacuba

Dificultad:PrincipiantePrincipiante

peter

tuner correct add songbook print version text version salvar en e-mail
acordesukuleletablaturabaixobateríaarmónicaflautacavacopiano Guitar Pro
acordes

Eres

Áño: 2003 - Álbum: Un Viaje

(Emanuel del Real)

Tono:  Am
	    
Intro 
||--------|--------|--------|--------|| 
||--------|--------|--------|--------|| 
||--------|--------|--------|-7-7----|| 
||-5-55--5|-8-88--8|-7-77--7|--7-----||  {x4} 
 
Verso 
||--------|--------|--------|-9-9----|| 
||-7------|-10-----|-9------|--9-----|| 
||--------|--------|--------|--------|| 
||--------|--------|--------|--------||  {x2} 
 
|--------|--------|--------|--------|--------|--------| 
|-12---13|14------|--------|--------|--------|-----14\| 
|--------|----14--|-12-----|-15-----|-14-----|----14--| 
|--------|--------|--------|--------|--------|--12----| 
 
||--------|--------|--------|--------|| 
||--------|--------|--------|--------|| 
||--------|--------|--------|-7-7----|| 
||-5-55--5|-8-88--8|-7-77--7|--7-----||  {x2} 
 
|--------|--------|--------|--------|--------|----9---| 
|--------|--------|--------|--------|--------|---9-9--| 
|-5--5--6|-7------|--------|--------|--------|7-7---7\| 
|---5----|---0-7--|--5-55-5|-8-88--8|-7-77--7|-7------| 
 
Coro 
|--------|--------9--|--------|--------|--------|--------|-------| 
|--------|-------9-9-|--------|--------|--------|--------|-------| 
|-5---5--|-7-77-7---7|-0-2-3-7|-5--5---|-----7--|-5-3-2-0|-7777--| 
|----5---|-----------|--------|---5----|-0-7----|--------|-------| 
 
 
{Arpegio de Guitarra, no hay bajo} 
 
 
||--------|--------|-------|-------|| 
||--------|--------|-------|-------|| 
||--------|--------|-------|-------|| 
||-5-55--5|-8-88--8|-7---6-|-5---7-|| {x3}  
 
 
{Silencio hasta...} 
 
...y mi fé 
|-------------|----------9~-| 
|-------------|-9------9----| 
|-------------|---10-7------| 
|-------------|-------------| 
 
 
   Soy               el que quererte... 
||--------|--------|--------|--------|| 
||--------|--------|--------|--------|| 
||--------|--------|--------|-7-7----|| 
||-5-55-5-|-8-88-8-|-7-77-7-|--7-----|| {x2} 
 
|--------|--------|--------|--------|--------|--------| 
|--------|--------|--------|--------|--------|--------| 
|-5--5--6|-7------|--------|--------|-----78-|--7-7-76| 
|---5----|---0-7--|--5-55-5|-8-88-8-|7-77----|---7----| 
 
 
  Aquí estoy a tu lado... 
|--------|--------9--|--------|--------|--------|--------|-------| 
|--------|-------9-9-|--------|--------|--------|--------|-------| 
|-5---5--|-7-77-7---7|-0-2-3-7|-5--5---|--------|-5-3-2-0|-7777--| 
|----5---|-----------|--------|---5----|-0-5-7--|--------|-------| 
 
                       cada minuto en lo que pienso.... 
||--------|--------|--------|--------|| 
||--------|--------|--------|-------2|| 
||--------|--------|--------|------2-|| 
||-5-55-5-|-8-88-0-|1-11-1-0|-0-00---|| {x3} 
 
||--------|--------|--------|--------|| 
||--------|--------|--------|------7-|| 
||--------|------10|8-88----|-7-7---7|| 
||-5-55-5-|-8-88---|--------|--------|| {x5} 
 
|---| 
|---| 
|---| 
|-5-| 
	  

No existe una video leccione para esta canción

request
LosAcordes
Buscar
auto avanzar rasgueos aumentar disminuir cambiar color esconder acordes gráficos
losacordes exhibir acordes losacordes youTube video losacordes ocultar tabs losacordes ir hacia arriba losacordes