Brooks And Dunn

Início > Brooks And... > acordes

Missing You Bassline Tablatura Bajo

Brooks And Dunn

Dificultad:Ningún gradoNingún grado

adalgomes

tuner correct add songbook print version text version salvar en e-mail
acordesukuleletablaturabaixobateríaarmónicaflautacavacopiano Guitar Pro
acordes

Missing You Bassline

	  Gtr I Bass 

Tuned Down 1/2 Step (Eb Ab Db Gb)  

 Intro 
  Q=106 
 4/4 
  Gtr I 
  PM------------------------------------------------------------------| 
  E E E E E E E E   E E E E E E E E   E E E E E E E E   E E E E E E E E 
|-----------------|-----------------|-----------------|-----------------| 
|-----------------|-----------------|-----------------|-----------------| 
|-----------------|-----------------|-3-3-3-3-3-3-3-3-|-5-5-5-5-5-5-5-5-| 
|-3-3-3-3-3-3-3-3-|-3-3-3-3-3-3-3-3-|-----------------|-----------------| 


  PM------------------------------------------------------------------| 
  E E E E E E E E   E E E E E E E E   E E E E E E E E   E E E E E E E E 
|-----------------|-----------------|-----------------|-----------------| 
|-----------------|-----------------|-----------------|-----------------| 
|-----------------|-----------------|-3-3-3-3-3-3-3-3-|-5-5-5-5-5-5-5-5-| 
|-3-3-3-3-3-3-3-3-|-3-3-3-3-3-3-3-3-|-----------------|-----------------| 


   Verse 
    PM------------------------------------------------------------------| 
    E E E E E E E E   E E E E E E E E   E E E E E E E E   E E E E E E E E 
||------------------|-----------------|-----------------|-------------------|| 
||o-----------------|-----------------|-----------------|------------------o|| 
||o-----------------|-----------------|-3-3-3-3-3-3-3-3-|-5-5-5-5-5-5-5-5--o|| 
||--3-3-3-3-3-3-3-3-|-3-3-3-3-3-3-3-3-|-----------------|-------------------|| 


 Pre-Verse 
  PM----------------------------------------------------------------| 
  E E E E E E E E   E E E E E E E E   E E E E E E E E   E E E E E E E E 
|-----------------|-----------------|-----------------|-----------------| 
|-----------------|-----------------|-----------------|-----------------| 
|-7-7-7-7-7-7-7-7-|-7-7-7-7-7-7-7-7-|-3-3-3-3-3-3-3-3-|-5-5-5-5-5-5-5-5-| 
|-----------------|-----------------|-----------------|-----------------| 


   Verse (cont) 
    PM------------------------------------------------------------------| 
    E E E E E E E E   E E E E E E E E   E E E E E E E E   E E E E E E E E 
||------------------|-----------------|-----------------|-------------------|| 
||o-----------------|-----------------|-----------------|------------------o|| 
||o-----------------|-----------------|-3-3-3-3-3-3-3-3-|-5-5-5-5-5-5-5-5--o|| 
||--3-3-3-3-3-3-3-3-|-3-3-3-3-3-3-3-3-|-----------------|-------------------|| 


 Pre-Chorus 
  PM----------------------------------------------------------------| 
  E E E E E E E E   E E E E E E E E   E E E E E E E E   E E E E E E E E 
|-----------------|-----------------|-----------------|-----------------| 
|-----------------|-----------------|-----------------|-----------------| 
|-7-7-7-7-7-7-7-7-|-7-7-7-7-7-7-7-7-|-3-3-3-3-3-3-3-3-|-5-5-5-5-5-5-5-5-| 
|-----------------|-----------------|-----------------|-----------------| 


   Chorus 
    PM------------------------------------------------------------------| 
    E E E E E E E E   E E E E E E E E   E E E E E E E E   E E E E E E E E 
||------------------|-----------------|-----------------|-------------------|| 
||o-----------------|-----------------|-----------------|------------------o|| 
||o-----------------|-----------------|-3-3-3-3-3-3-3-3-|-5-5-5-5-5-5-5-5--o|| 
||--3-3-3-3-3-3-3-3-|-3-3-3-3-3-3-3-3-|-----------------|-------------------|| 


   Verse 2 
    PM----------------------------------------------------------------| 
    E E E E E E E E   E E E E E E E E   E E E E E E E E   E E E E E E E E   3x 
||------------------|-----------------|-----------------|-------------------|| 
||o-----------------|-----------------|-----------------|------------------o|| 
||o-----------------|-----------------|-3-3-3-3-3-3-3-3-|-5-5-5-5-5-5-5-5--o|| 
||--3-3-3-3-3-3-3-3-|-3-3-3-3-3-3-3-3-|-----------------|-------------------|| 


 Pre-Verse 
  PM----------------------------------------------------------------| 
  E E E E E E E E   E E E E E E E E   E E E E E E E E   E E E E E E E E 
|-----------------|-----------------|-----------------|-----------------| 
|-----------------|-----------------|-----------------|-----------------| 
|-7-7-7-7-7-7-7-7-|-7-7-7-7-7-7-7-7-|-3-3-3-3-3-3-3-3-|-5-5-5-5-5-5-5-5-| 
|-----------------|-----------------|-----------------|-----------------| 


   Chorus 
    PM----------------------------------------------------------------| 
    E E E E E E E E   E E E E E E E E   E E E E E E E E   E E E E E E E E 
||------------------|-----------------|-----------------|-------------------|| 
||o-----------------|-----------------|-----------------|------------------o|| 
||o-----------------|-----------------|-3-3-3-3-3-3-3-3-|-5-5-5-5-5-5-5-5--o|| 
||--3-3-3-3-3-3-3-3-|-3-3-3-3-3-3-3-3-|-----------------|-------------------|| 


   Bridge 
    PM----------------------------------------------------------------| 
    E E E E E E E E   E E E E E E E E   E E E E E E E E   E E E E E E E E 
||------------------|-----------------|-----------------|-------------------|| 
||o-----------------|-----------------|-----------------|------------------o|| 
||o-7-7-7-7-7-7-7-7-|-7-7-7-7-7-7-7-7-|-3-3-3-3-3-3-3-3-|-5-5-5-5-5-5-5-5--o|| 
||------------------|-----------------|-----------------|-------------------|| 


   Chorus 
    PM----------------------------------------------------------------| 
    E E E E E E E E   E E E E E E E E   E E E E E E E E   E E E E E E E E   3x 
||------------------|-----------------|-----------------|-------------------|| 
||o-----------------|-----------------|-----------------|------------------o|| 
||o-----------------|-----------------|-3-3-3-3-3-3-3-3-|-5-5-5-5-5-5-5-5--o|| 
||--3-3-3-3-3-3-3-3-|-3-3-3-3-3-3-3-3-|-----------------|-------------------|| 


 Pre-Chorus 
  PM----------------------------------------------------------------| 
  E E E E E E E E   E E E E E E E E   E E E E E E E E   E E E E E E E E 
|-----------------|-----------------|-----------------|------------------| 
|-----------------|-----------------|-----------------|------------------| 
|-7-7-7-7-7-7-7-7-|-7-7-7-7-7-7-7-7-|-3-3-3-3-3-3-3-3-|-5-5-5-5-5-5-5-5--| 
|-----------------|-----------------|-----------------|------------------| 


   Outro 
    PM----------------------------------------------------------------| 
    E E E E E E E E   E E E E E E E E   E E E E E E E E   E E E E E E E E   8x 
||------------------|-----------------|-----------------|-------------------|| 
||o-----------------|-----------------|-----------------|------------------o|| 
||o-----------------|-----------------|-3-3-3-3-3-3-3-3-|-5-5-5-5-5-5-5-5--o|| 
||--3-3-3-3-3-3-3-3-|-3-3-3-3-3-3-3-3-|-----------------|-------------------|| 


Duration Legend 
--------------- 
W - whole; H - half; Q - quarter; E - 8th; S - 16th; T - 32nd; X - 64th; a - acciaccatura 
+ - note tied to previous; . - note dotted; .. - note double dotted 
Uncapitalized letters represent notes that are staccato (1/2 duration) 
Irregular groupings are notated above the duration line 
Duration letters will always appear directly above the note/fret number it represents the 
duration for.  Duration letters with no fret number below them represent rests.  Multi- 
bar rests are notated in the form Wxn, where n is the number of bars to rest for.  Low 
melody durations appear below the staff 

Tablature Legend 
---------------- 
 h   - hammer-on 
 p   - pull-off 
 b   - bend 
 pb  - pre-bend 
 r   - bend release (if no number after the r, then release immediately) 
 /\  - slide into or out of (from/to "nowhere") 
 s   - legato slide 
 S   - shift slide 
  - natural harmonic 
n  - artificial harmonic 
n(n) - tapped harmonic 
 ~   - vibrato 
 tr  - trill 
 T   - tap 
 TP  - trem. picking 
 PM  - palm muting 
\n/  - tremolo bar dip; n = amount to dip 
 \n  - tremolo bar down 
 n/  - tremolo bar up 
/n\  - tremolo bar inverted dip 
 =   - hold bend; also acts as connecting device for hammers/pulls 
   - volume swell (louder/softer) 
 x   - on rhythm slash represents muted slash 
 o   - on rhythm slash represents single note slash 

Misc Legend 
----------- 
 |  - bar 
||  - double bar 
||o - repeat start 
o|| - repeat end 
*|  - double bar (ending) 
 :  - bar (freetime) 
 $  - Segno 
 &  - Coda 
Tempo markers -  = BPM(8/16=s8/s16), where s8 = swing 8ths, s16 = swing 16ths
	  

No existe una video leccione para esta canción

request
LosAcordes
Buscar
auto avanzar rasgueos aumentar disminuir cambiar color esconder acordes gráficos
losacordes exhibir acordes losacordes youTube video losacordes ocultar tabs losacordes ir hacia arriba losacordes