Audioslave

Início > Audioslave > acordes

Like a Stone Tablatura Bajo

Audioslave

Dificultad:PrincipiantePrincipiante

tuner correct add songbook print version text version salvar en e-mail
acordesukuleletablaturabaixobateriaarmónicaflautacavacopiano Guitar Pro
acordes

Like a Stone

Áño: 2002 - Álbum: Audioslave

(Cornell/ Morello/ Commerford/ B. Wilk)

Tono:  Gm
	  Guitar Intro – Rest for 4 measures

Verse x4
G-|----------------------------------------|
D-|-----------------------------------3----|
A-|-----5-5------5-5------5-5--------5-|
D-|-5---------5---------5---------5--------|

Chorus-
G-|---------------------------------------------|
D-|----------------------------------------/7-5-|
A-|------------/8---------------------/8--------|
D-|-5---7-8---------8-5----5----8---------------|

G-|------------------------------------|
D-|------------------------------------|
A-|-/6----------/8---------/6----------|
D-|------8-5--------8-5---------8-5----|

Post Chorus-
G-|---------------------|
D-|---------------------|
A-|-5---------5---------|
D-|-----0-0-0-----0-0-0-|

Verse x4

Chorus x1

Post Chorus 2 x2

G-|----------------|
D-|----------------|
A-|-5---------5----|
D-|-----0-0-0------|

Guitar Solo (with light distortion)-
G-|------------------------------------------------|
D-|----------------------------------------/7-5/---|
A-|------------/8---------------------/8-----------|
D-|-5---7-8---------8-5----5---7-8-----------------|

G-|-------------------------------------------------------------------|
D-|-------------------------------------------------------------------|
A-|-/6-6-6-6-6-6-6-6-----------------/8-8-8-8-8-8-8-8-----------------|
D-|------------------5-5-5-5-5-5-5-5------------------5-5-5-5-5-5-5-5-|

G-|------------------------------------------------------------------|
D-|------------------------------------------------------------------|
A-|-/6-6-6-6-6-6-6-6-----------------5-5-5-5-5-5-5-5-----------------|
D-|------------------5-5-5-5-5-5-5-5-----------------0-0-0-0-0-0-0-0-|

Interlude- Rest for 8 measures before playing-
G-|-------------------------------------------------------------------|
D-|-------------------------------------------------------------------|
A-|-6-------------------6---------------------------------------------|
D-|------8----6----8---------8----0-0-0-0-0-0-0-0---------------------|

Chorus x1
Post Chorus 2 x2

Final Note-

G-|----|
D-|----|
A-|-/6-|
D-|----|


************************************************
*            VERSÃO PARA 5 CORDAS              *
************************************************
Guitar Intro – Rest for 4 measures

Verse x4
G-|----------------------------------------|
D-|-----------------------------------3----|
A-|-----5-5------5-5------5-5--------5-|
E-|-3---------3---------3---------3--------|
B-|----------------------------------------|

Chorus-
G-|---------------------------------------------|
D-|----------------------------------------/7-5-|
A-|------------/8---------------------/8--------|
E-|-3---5-6---------6-3----3----6---------------|
B-|---------------------------------------------|

G-|------------------------------------|
D-|------------------------------------|
A-|-/6----------/8---------/6----------|
E-|------6-3--------6-3---------6-3----|
B-|------------------------------------|

Post Chorus-
G-|---------------------|
D-|---------------------|
A-|-5---------5---------|
G-|---------------------|
B-|-----3-3-3-----3-3-3-|

Verse x4

Chorus x1

Post Chorus 2 x2

G-|----------------|
D-|----------------|
A-|-5---------5----|
G-|----------------|
B-|-----3-3-3------|

Guitar Solo (with light distortion)-
G-|------------------------------------------------|
D-|----------------------------------------/7-5/---|
A-|------------/8---------------------/8-----------|
E-|-3---5-6---------6-3----3---5-6-----------------|
B-|------------------------------------------------|

G-|-------------------------------------------------------------------|
D-|-------------------------------------------------------------------|
A-|-/6-6-6-6-6-6-6-6-----------------/8-8-8-8-8-8-8-8-----------------|
E-|------------------3-3-3-3-3-3-3-3------------------3-3-3-3-3-3-3-3-|
B-|-------------------------------------------------------------------|

G-|------------------------------------------------------------------|
D-|------------------------------------------------------------------|
A-|-/6-6-6-6-6-6-6-6-----------------5-5-5-5-5-5-5-5-----------------|
E-|------------------3-3-3-3-3-3-3-3---------------------------------|
B-|--------------------------------------------------3-3-3-3-3—3-3-3-|

Interlude- Rest for 8 measures before playing-
G-|-------------------------------------------------------------------|
D-|-------------------------------------------------------------------|
A-|-6-------------------6---------------------------------------------|
E-|-----6----4----6----------6----------------------------------------|
B-|--------------------------------3-3-3-3-3-3-3-3--------------------|


Chorus x1
Post Chorus 2 x2

Final Note-

G-|----|
D-|----|
A-|-/6-|
E-|----|
B-|----|


************************************************
*                  VERSÃO 2                    *
************************************************
Introdução – espere 4 tempos da guitarra e depois entre.

> 1º verso 
                                                         __ 
G-|---------------------------------------------------  |      /
D-|---------------------------------------------3-----  |__   / 
A-|-----5-5-5------5-5-5------5-5-5------5-5---5--     |  / 
D-|-5-----------5-----------5-----------5-------------   __| /  

> Refrão (é utilizado no baixo uma distorção)

G-|-------------------------------------------------
D-|------------------------------------------/7-5--
A-|------------/8-----------------------/8----------
D-|-5---7-8---------8-5----5---5-8---8-------------

G-|------------------------------------
D-|------------------------------------
A-|-/6---------/8----------/6----------
D-|------8-5--------8-5--------8-5----

> Final do refrão 

G-|---------------------------
D-|---------------------------
A-|-/5-----------/5-----------
D-|------0-0-0-0-----0-0-0-0--

> > 1º verso - 5 vezes < <

> > Refrão  < <

> > Final do refrão - 2 vezes < <

> Solo da Guitarra (é utilizado no baixo uma distorção)

G-|--------------------------------------------------------------
D-|------------------------------------------------------/7-5/---
A-|--------------------/8-----------------------------/8---------
D-|-5---5-7-/8---8-8-8------8-5---5---5-7-/8---8-8-8------------

G-|--------------------------------------------------------------------
D-|--------------------------------------------------------------------
A-|-/6-6-6-6-6-6-6-6-----------------/8-8-8-8-8-8-8-8------------------
D-|------------------5-5-5-5-5-5-5-5------------------5-5-5-5-5-5-5-5--

G-|--------------------------------------------------------------------
D-|--------------------------------------------------------------------
A-|-/6-6-6-6-6-6-6-6-----------------5-5-5-5-5-5-5-5-------------------
D-|------------------5-5-5-5-5-5-5-5-----------------0-----------------

Intervalo - espere 8 tempos da guitarra base e depois entre.

G-|-----------------------------------------------------------
D-|-----------------------------------------------------------
A-|-6----6------5----5/6----5/6----6-3----/5------------------
D-|--------8---------------------------------0-0-0-0-0-0-0-0--

> > Refrão  < <

> > Final do refrão - 2 vezes < <

> Ultima nota

G-|-----
D-|-----
A-|-/6--
D-|-----


	  

No existe una video leccione para esta canción

request
LosAcordes
Buscar
auto avanzar rasgueos aumentar disminuir cambiar color esconder acordes gráficos
losacordes exhibir acordes losacordes youTube video losacordes ocultar tabs losacordes ir hacia arriba losacordes