Alanis Morissette

Início > Alanis Mor... > acordes

Head Over Feet Tablatura Bajo

Alanis Morissette

Dificultad:IntermedioIntermedio

tuner correct add songbook print version text version salvar en e-mail
acordesukuleletablaturabaixobateríaarmónicaflautacavacopiano Guitar Pro
acordes

Head Over Feet

Áño: 1995 - Álbum: Jagged Little Pill Acoustic

Tono:  C
	  (sem baixo)
I had no choice but to hear you
you stated your case time and again
I thought about it


G|-----------|
D|-----------|
A|---15/3----|
E|-----------|


G|------------------------|
D|------------------------|
A|-3-3-3------------------|
E|-------3----5-5-5---1---|
You treat me like I'm a princess
I'm not used to liking that
You ask How my day was



Refrão:
G|--------------------------------------------|
D|--------------------------------------------|
A|-5-5-5--2--2-2-2-2--------------------------|
E|--------------------------3-3-3--5--5-5-5-5-|
You've already won me over  in spite of me


G|---------------------------------------------|
D|---------------------------------------------|
A|-5-5-5--2--2-2-2-2--------1-1-1--------------|
E|----------------------------------5--5-5-5-5-|
Don't be alarmed if I fall  Head over Feet


G|--------------------------------------------------|
D|--------------------------------------------------|
A|-5-5-5--2--2-2-2-2--------------------------------|
E|--------------------------------3-3-3--5--5-5-5-5-|
Don't be surprised if I love you  For all that you are


G|--------------------------|
D|--------------------------|
A|--------3-3-3-3-----------|
E|-1--1-1----------3-3-3-3--|
I couldn't help it It's all your fault




G|------------------------|
D|------------------------|
A|-3-3-3------------------|
E|-------3----5-5-5---1---|
Your love is thick and it's swallowed me whole
You're so much braver than I gave you credit for
That's not lip service



*Refrão*



G|------------------------|
D|------------------------|
A|-3-3-3------------------|
E|-------3----5-5-5---1---|
You are the bearer of unconditional things 
You held your breath and the door for me
thaks for your pacience



G|------------------------|
D|------------------------|
A|-3-3-3------------------|
E|-------3----5-5-5---1---|
Solo de gaita



G|------------------------|
D|------------------------|
A|-3-3-3------------------|
E|-------3----5-5-5---1---|
You're the best listener that I've ever met
You're my best friend Best Friend with benefits
what took me so long



G|------------------------|
D|------------------------|
A|-3-3-3------------------|
E|-------3----5-5-5---1---|
I've never felt this healthy before
I've never wanted something rational
I am aware now
I am aware now



*Refrão* -> 2x
	  

No existe una video leccione para esta canción

request
LosAcordes
Buscar
auto avanzar rasgueos aumentar disminuir cambiar color esconder acordes gráficos
losacordes exhibir acordes losacordes youTube video losacordes ocultar tabs losacordes ir hacia arriba losacordes