Agent Orange

Início > Agent Oran... > acordes

America Tablatura Bajo

Agent Orange

Dificultad:Ningún gradoNingún grado

tuner correct add songbook print version text version salvar en e-mail
acordesukuleletablaturabaixobateríaarmónicaflautacavacopiano Guitar Pro
acordes

America

	  

Tune down 1/2 step : Eb,Ab,Db,Gb

* = bend string

Gb|-----------------------------------|
Db|-----------------------------------|
Ab|---66-55-44-33-111-3---------------|
Eb|------------------------------4*---|


Gb|-------------------------------------------------------------------------------------------------------------|
Db|----------------------------22-44--55-66-----------------------------------------22-44-55-66-----------------|
Ab|-------------------------------------------------------------------------------------------------------------|
Eb|-55-33--55-33--55-33--55-33-------------55-33--55-33--55-33--55-33--55-33--55-33-------------55-33--55-33----|


Gb|-------------------------------------------------------------------------------|
Db|-------------------------------------------------------------------------------|
Ab|-------------------------------------------------------------------------------|
Eb|--0-0-0-0-0-0-0-0--5-5-5-5-5-5-5-5--0-0-0-0-0-0-0-0--5-----5-5-5---------------|



Gb|------------------------------------------------------------------------------------------------------------------------------------|
Db|------------------------------------------------------22-44--55-66-----------------------------------------22-44--55-66-------------|
Ab|------------------------------------------------------------------------------------------------------------------------------------|
Eb|55-33--55-33--55-33--55-33--55-33--55-33--55-33--55-33------------55-33--55-33--55-33--55-33--55-33--55-33-------------55-33--55-33-|


Gb|-------------------------------------------------------------------------------|
Db|-------------------------------------------------------------------------------|
Ab|-------------------------------------------------------------------------------|
Eb|--0-0-0-0-0-0-0-0--5-5-5-5-5-5-5-5--0-0-0-0-0-0-0-0--5-----5-5-5---------------|


Gb|-------------------------------------------------------------------------------------------------------------|
Db|----------------------------22-44--55-66-----------------------------------------22-44-55-66-----------------|
Ab|-------------------------------------------------------------------------------------------------------------|
Eb|-55-33--55-33--55-33--55-33-------------55-33--55-33--55-33--55-33--55-33--55-33-------------55-33--55-33----|


Gb|-------------------------------------------------------------------------------|
Db|-------------------------------------------------------------------------------|
Ab|-------------------------------------------------------------------------------|
Eb|--0-0-0-0-0-0-0-0--5-5-5-5-5-5-5-5--0-0-0-0-0-0-0-0--5-----5-5-5---------------|


Gb|---------------------------------------|
Db|---------------------------------------|
Ab|----------------------------------77---|
Eb|----55-33--55-33--55-33--5--55---------|


	  

No existe una video leccione para esta canción

request
LosAcordes
Buscar
auto avanzar rasgueos aumentar disminuir cambiar color esconder acordes gráficos
losacordes exhibir acordes losacordes youTube video losacordes ocultar tabs losacordes ir hacia arriba losacordes