2 Minutos

Início > 2 Minutos > acordes

Cancion Para Mi Muerte Tablatura Bajo

2 Minutos

Dificultad:Ningún gradoNingún grado

tuner correct add songbook print version text version salvar en e-mail
acordesukuleletablaturabaixobateríaarmónicaflautacavacopiano Guitar Pro
acordes

Cancion Para Mi Muerte

	  cancion para mi muerte

1-------------------------------------
2-------------------------------------
3-3----3---3--------3-----------------
4---1----3---5-1--3-------------------

verso
1-----------------------
2-----------------------
3-3(*8)-----------------
4--------3(*8)--1(*8)---

bridge
1-----------------------
2-----------------------
3-----------------------
4---5555--33333---------

coro
1--------------------------------------
2--------------------------------------
3-3(*5)--------------------------3(*5)-
4-------1(*5)-5(*5)--3(*5)-1(*5)-------

cancion para mi muerte
1-----------------------------------------------------
2-----------------------------------------------------
3-3(*4)-------3(*4)--------3(*4)-------------------33-
4-------1(*4)-------3(*4)--------5(*4)-1111--3333-----

bridge

1------------------------------------------------
2------------------------------------------------
3-----------------3333---------------------------
4-1111--5555-3333--------------------------------

mmgc182hotmail.com
	  

No existe una video leccione para esta canción

request
LosAcordes
Buscar
auto avanzar rasgueos aumentar disminuir cambiar color esconder acordes gráficos
losacordes exhibir acordes losacordes youTube video losacordes ocultar tabs losacordes ir hacia arriba losacordes