12-Stones

Início > 12-Stones > acordes

The way i feel Tablatura Bajo

12-Stones

Dificultad:PrincipiantePrincipiante

Falling Up

tuner correct add songbook print version text version salvar en e-mail
acordesukuleletablaturabaixobateríaarmónicaflautacavacopiano Guitar Pro
acordes

The way i feel

	  Intro  
G | ----------------------------------------------------------------------------------| 
D | ----------------------------------------------------------------------------------| 
A | -------------------------------------5h6------------------------------------------|2x 
E | -------4-4--6-4--------4-4ý3/4----------------------------------------------------| 
B | -1-1--------------1-1-------------------------------------------------------------| 
 
Verse 
G | ----------------------------------------------------------------------------------| 
D | ----------------------------------------------------------------------------------| 
A | -------------------------------------5h6------------------------------------------|2x 
E | -------4-4--6-4--------4-4ý3/4----------------------------------------------------| 
B | -1-1--------------1-1-------------------------------------------------------------| 
 
Chorus 
G | ----------------------------------------------------------------------------------| 
D | ----------------------------------------------------------------------------------| 
A | ---------------------------------------------5-----5-5----------------------------|2x 
E | -------4-4--------------------------4-4--5---5-5------5-5-------------------------| 
B | -1-1-------4-4--6-6--4-4---1-1----------------------------------------------------| 
 
Verse 
Chorus 
 
Play Verse for first part of Guitar Solo and play Chorus after the scream 
 
Chorus 
Chorus 
 
Song Structure 
Intro 
Verse 
Chorus 
Verse 
Chorus 
Guitar Solo 
Chorus 
Chorus 
	  

No existe una video leccione para esta canción

request
LosAcordes
Buscar
auto avanzar rasgueos aumentar disminuir cambiar color esconder acordes gráficos
losacordes exhibir acordes losacordes youTube video losacordes ocultar tabs losacordes ir hacia arriba losacordes