Victor e Léo

Início > Victor e L... > acordes

Fada Teclado

Victor e Léo

Dificultad:PrincipiantePrincipiante

heithooor

tuner correct add songbook print version text version salvar en e-mail
acordesukuleletablaturabaixobateríaarmónicaflautacavacopiano Guitar Pro
acordes

Fada

Áño: 2007 - Álbum: Ao Vivo

Tono:  A Más
Fada Key EE
Fada Key FF
Fada Key F#F#
Fada Key GG(Disminuir uno tono)
Fada Key G#G#(Disminuir uno semi-tono)
Fada Key AA(tono original)
Fada Key A#A#(Aumentar uno semi-tono)
Fada Key BB(Aumentar uno tono)
Fada Key CC
Fada Key C#C#
Fada Key DD
Fada Key D#D#
	  (intro 2x) A F#m 
( usa-se bastante dedilhados na música, tenha como base o solo ) 

 A             F#m   A             F#m 
Fada, fada querida, dona da minha vida 
   E                      F#m    E 
Você se foi, levou meu calor, você se foi, mas não me 
   F#m      E 
levooooou 

E|-------------------------| 
B|-------12----------------| 
G|-11h13---13-11-9-11------| 
D|--------------------7----| 
A|-------------------------| 
E|-------------------------| 

(riff) 
E|--9--9---12/12-12- 
B|--10-10--12/14-14- 

 A             F#m   A                 F#m 
Lua, lua de encanto, ouça pra quem eu canto 
 E                F#m      E                F#m      (riff) 
Ela levou minha magia, mas ela é minha alegria 
 D                    E             A 
Vejo uma luz, uma estrela brilhar, sinto um cheiro de 
    F#m 
perfume no ar 
 D                     E                 D 
Vejo minha fada e sua vara de condão, tocando meu 
E    A 
coração 

(solo 1) 
E|--9--9--9---7-7-7---5-5-5--------- 
B|--10-10-10--9-9-9---7-7-7--------- 

 A                     F#m 
Madrugada de amor que não vai acabar 
 A                         F#m 
Se estou sonhando, não quero mais acordar 
 D                         E          A 
Minha história linda, meu conto de amor 
( E ) 
A                             F#m 
Algo aqui me diz que essa paixão não é em vão 
A                       F#m 
O meu sentimento é bem mais que uma emoção 
D                       E         D    E   A 
Eu espero o tempo que for, minha fada do amor 

(solo 2) A F#m A F#m D E D E A E 

E|-5-5-3-3--5-5-7-9--7-5------9--9--9--9/10-/12-12-10-9----| 
B|-7-7-5-5--7-7-9-11-9-7------10-10-10-10/12-/14-14-12-10--| 
G|---------------------------------------------------------| 
D|---------------------------------------------------------| 
A|---------------------------------------------------------| 
E|---------------------------------------------------------| 

E|-17-17-17-17-17---16-16-16-16-16-----------9---7--4/5---------------------------| 
B|-19-19-19-19-19---17-17-17-17-17--------7/9-------------------------------------| 
G|---------------------------------------------7--6-----6/7-7-7/9------2-1--------| 
D|------------------------------------------------------------------0h2---2-2/4---| 
A|--------------------------------------------------------------------------------| 
E|--------------------------------------------------------------------------------| 

(volta) 
  D 
"Vejo uma luz..." 

(refrão 2x) 

	  

No existe una video leccione para esta canción

request
Aumentar uno tonoAumentar uno tono
Aumentar uno semi-tonoAumentar uno semi-tono
Disminuir uno semi-tonoDisminuir uno semi-tono
Disminuir uno tonoDisminuir uno semi-tono
LosAcordes
Buscar
auto avanzar rasgueos aumentar disminuir cambiar color
losacordes exhibir acordes losacordes youTube video losacordes ocultar tabs losacordes ir hacia arriba losacordes