Roper

Início > Roper > acordes

Red Eye to Miami Teclado

Roper

Dificultad:Ningún gradoNingún grado

cold_flame4jc

tuner correct add songbook print version text version salvar en e-mail
acordesukuleletablaturabajobateríaarmónicaflautacavacopiano Guitar Pro
acordes

Red Eye to Miami

	  Tabbed by: cold_flame4jc 
 
The one orginally here wasnt the guitar part so i tabbed it out. 
 
Palm Mute:* 
 
 
Verse: use reveb or delay to make it sound good 
e------------- 
B------------- 
G-7---5--7---5 
D-7---5--7---5  2x 
A-5---3--5---3 
E------------- 
 
verse pt 2: Distortion 
e------------------------------ 
B------------------------------ 
G-----7-------7-------5-------- 
D-----7-------7-------5-------5   4x 
A-5-5-5---5-5-5---3-3-3-------5   
E-------------------------3-3-3 
  * *     * *     * *     * * 
 
Pre Chorus 
e------------------- 
B------------------- 
G-----------5-5--7-7 
D-3-3--5-5--5-5--7-7  4x 
A-3-3--5-5--3-3--5-5 
E-1-1--3-3---------- 
 
Chorus 
e------------------- 
B------------------- 
G-7-7--5-5-------7-7 
D-7-7--5-5--5-5--7-7  4x 
A-5-5--3-3--5-5--5-5 
E-----------3-3----- 
 
Verse 1: 3x 
Verse 2: 4x 
Pre-Chorus: 4x 
Chorus: 8x 
 
Bridge: 
e--------- 
B--------- 
G--------- 
D-3-3--5-5 4x 
A-3-3--5-5 
E-1-1--3-3 
 
Chorus: 8x 
 
Thats it! 
any questions e-mail me at [email protected] 

	  

No existe una video leccione para esta canción

request
LosAcordes
Buscar
auto avanzar rasgueos aumentar disminuir cambiar color
losacordes exhibir acordes losacordes youTube video losacordes ocultar tabs losacordes ir hacia arriba losacordes