Marianas Trench

Início > Marianas T... > acordes

Cross My Heart Teclado

Marianas Trench

Dificultad:PrincipiantePrincipiante

europeu

tuner correct add songbook print version text version salvar en e-mail
acordesukuleletablaturabajobateríaarmónicaflautacavacopiano Guitar Pro
acordes

Cross My Heart

	  Tab Key: 

h = hammer on 
p = pull off 
/ = slide 

Intro 

Guitar 2 (2x) 

e|--------------------------| 
B|--------------------------| 
G|7-------------7-----------| 
D|7--444-4-4555-7-444-------|  
A|5-2444-2-4555-5-444-2~-4~-| 
E|--0224---2333---222---2--2| 

Guitar 2 

e|---------------------------------| 
B|-5h7p5------5h7p5------5h7p5-----| 
G|7------77/9-------77/9-------77/9| 
D|---------------------------------| 
A|---------------------------------| 
E|---------------------------------| 

Verse 

e|-----------------------------------------------| 
B|-----------------------------------------------| 
G|77----------------------77---------------------| 
D|77-77-99-55-4/55-4/55-4-77-77-99-55-4/55-4/55-4| 
A|55-77-99-55-4/55-4/55-4-55-77-99-55-4/55-4/55-4| 
E|---55-77-33-2/33-2/33-2----55-77-33-2/33-2/33-2| 

Pre-Chorus 

e|-------------| 
B|-------------| 
G|-------------| 
D|-------------| 
A|222222-444444| 
E|000000-222222| 
  ...... .... 

Chorus 1 
Both Guitars 

e|-----------|-----------|-----------|------| 
B|-----------|-----------|-----------|------| 
G|77---------|77---------|77---------|------| 
D|77-77-99-55|77-77-99-55|77-77-99-55|2222-7| 
A|55-77-99-55|55-77-99-55|55-77-99-55|2222-7| 
E|---55-77-33|---55-77-33|---55-77-33|0000-5| 

Guitar 1 

e|--------------------------|--------------------------| 
B|--------------------------|--------------------------| 
G|7-------------7-----------|7-------------7-----------| 
D|7--444-4-4555-7-444-------|7--444-4-4555-7-444-------| 
A|5-2444-2-4555-5-444-2~-4~-|5-2444-2-4555-5-444-2~-4~-| 
E|--0224---2333---222---2--2|--0224---2333---222---2--2| 

Guitar 2 

e|---------------------------------|----------------------------------| 
B|-5h7p5------5h7p5------5h7p5-----|5h7p5------5h7p5--------5h7p5-----| 
G|7------77/9-------77/9-------77/9|------77/9-------7-9/11-------77/9| 
D|---------------------------------|----------------------------------| 
A|---------------------------------|----------------------------------| 
E|---------------------------------|----------------------------------| 

Verse 2 

e|---------------------------------------------------------| 
B|---------------------------------------------------------| 
G|77-------------------------77----------------------------| 
D|77-77-99-54-4/55-4/54-4-77-77-778899-99------55-4/55-4/55| 
A|55-77-99-54-4/55-4/54-4-55-77-778899-99------55-4/55-4/55| 
E|---55-77-33-2/33-2/33-2----55-556677-77-14/3-33-2/33-2/33| 

Pre-Chorus 

e|-------------| 
B|-------------| 
G|-------------| 
D|-------------| 
A|222222-444444| 
E|000000-222222| 
  ...... .... 

Chorus 2 

e|-----------|-----------|-----------|------| 
B|-----------|-----------|-----------|------| 
G|77---------|77---------|77---------|------| 
D|77-77-99-55|77-77-99-55|77-77-99-55|2222-7| 
A|55-77-99-55|55-77-99-55|55-77-99-55|2222-7| 
E|---55-77-33|---55-77-33|---55-77-33|0000-5| 

Outro 


e|-------------------|----|-----------------------| 
B|--------------8----|-8--|-8---------------------| 
G|7777777777777777/--|777/|77---------------------| 
D|7777777777777777/--|777/|77-999999-555555-777777| 
A|5555555555555555/--|555/|55-999999-555555-777777| 
E|-------------------|----|---777777-333333-555555| 
  .......... 


Last Chorus 

e|-----------|-----------|-----------|---------| 
B|-----------|-----------|-----------|---------| 
G|77---------|77---------|77---------|---------| 
D|77-77-99-55|77-77-99-55|77-77-99-55|2222-7777| 
A|55-77-99-55|55-77-99-55|55-77-99-55|2222-7777| 
E|---55-77-33|---55-77-33|---55-77-33|0000-5555| 

e|-------------------------------------------------------| 
B|-------------------------------------------------------| 
G|----------------------------77-777-77-777--------------| 
D|99-999-99-999-55-555-55-555-77-777-77-777-77-777-77-777| 
A|99-999-99-999-55-555-55-555-55-555-55-555-77-777-77-777| 
E|77-777-77-777-33-333-33-333---------------55-555-55-555| 

e|----------------------------------------------------| 
B|----------------------------------------------------| 
G|----------------------------77-777-77-777-----------| 
D|99-999-99-999-55-555-55-555-77-777-77-777-7777777777| 
A|99-999-99-999-55-555-55-555-55-555-55-555-7777777777| 
E|77-777-77-777-33-333-33-333---------------5555555555| 
	  

No existe una video leccione para esta canción

request
LosAcordes
Buscar
auto avanzar rasgueos aumentar disminuir cambiar color
losacordes exhibir acordes losacordes youTube video losacordes ocultar tabs losacordes ir hacia arriba losacordes