Lana Del Rey

Início > Lana Del R... > acordes

Cruel World Teclado

Lana Del Rey

Dificultad:IntermedioIntermedio

fernsantana

tuner correct add songbook print version text version salvar en e-mail
acordesukuleletablaturabajobateríaarmónicaflautacavacopiano Guitar Pro
acordes

Cruel World

	    



Intro 
e|----------------------------------------------| 
B|----------------------------------------------| 
G|-----1--2p1-----------------1-2p1-------------| 
D|---2------(2)---0h2-0h2---------(2)------0h2--| 
A|----------------------------------------2-----| 
E|-0----------------------0---------------------| 

e|----------------------------------------------| 
B|----------------------------------------------| 
G|-----1--2p1-----------------1-2p1-------------| 
D|---2------(2)---0h2-0h2---------(2)-----------| 
A|----------------------------------------------| 
E|-0----------------------0---------------------| 

Verse 
e|-----------------------------------------------------| 
B|-----------------------------------------------------| 
G|-14-----------12-----------6------------4------------| 
D|-xx-----------xx-----------x------------x------------| 
A|-12-----------10-----------4------------2------------| 
E|-----------------------------------------------------| 

e|-----------------------------------------------------------| 
B|-----------------------------------------------------------| 
G|-14------14-14/12-12------12-12/6-6------6/4------1h2p1----| 
D|-xx------xx-xx-xx-xx------xx-xx-x-x------x-x------------2--| 
A|-12------12-12/10-10------10-10/4-4------4/2---------------| 
E|-----------------------------------------------------------| 

Pre-Chorus 
e|-----------------------------------------------------------------------------------------------------0-| 
B|----------------------------------------------------------------------------------------2--------------| 
G|-0------------1------------0------------1---2p1-2p1--0----------1---------------0-------2----1---------| 
D|-0------------2------2p0---0------------2------------0----------2-----0-0-------0-------2----2---------| 
A|-2------------2------------2------------2------------2----------2---------2-0-2-2------------2---------| 
E|-3------------0------------3------------0------------3----------0---------------3------------0---------| 

Chorus 
e|-0------------0--------------------------------| 
B|-3------------2------------0--------0-3--2-----| 
G|-4------------2------------1----1-2--------2-1-| 
D|-4------------2------------2-------------------| 
A|-2------------0------------2-------------------| 
E|---------------------------0-------------------| 

e|-0------------0--------------------------------| 
B|-3------------2------------0-------------------| 
G|-4------------2------------1-------------------| 
D|-4------------2------------2-------------------| 
A|-2------------0------------2-------------------| 
E|---------------------------0-------------------| 

e|-0------------0--------------------------------| 
B|-3------------2------------0--------0-3--2-----| 
G|-4------------2------------1----1-2--------2-1-| 
D|-4------------2------------2-------------------| 
A|-2------------0------------2-------------------| 
E|---------------------------0-------------------| 

e|-0------------0--------------------------------| 
B|-3------------2------------0-------------------| 
G|-4------------2------------1-------------------| 
D|-4------------2------------2-------------------| 
A|-2------------0------------2-------------------| 
E|---------------------------0-------------------| 
	  

No existe una video leccione para esta canción

request
LosAcordes
Buscar
auto avanzar rasgueos aumentar disminuir cambiar color
losacordes exhibir acordes losacordes youTube video losacordes ocultar tabs losacordes ir hacia arriba losacordes