Glória

Início > Glória > acordes

A Arte De Fazer Inimigos Teclado

Glória

Dificultad:FácilFácil

hebealmeida

tuner correct add songbook print version text version salvar en e-mail
acordesukuleletablaturabajobateríaarmónicaflautacavacopiano Guitar Pro
acordes

A Arte De Fazer Inimigos

	  
Base da intro: G Bm A9 

e|------------------------------------------------------------| 
B|-7-7-7-7---5-5-5-5---7-7-7-7---5-5-5-5---2-2-2-2-2-2-2-2----| 
G|-7-7-7-7---7-7-7-7---7-7-7-7---7-7-7-7---4-4-4-4-4-4-4-4----| 
D|-7-7-7-7---7-7-7-7---7-7-7-7---7-7-7-7---4-4-4-4-4-4-4-4----| 
A|------------------------------------------------------------| 
E|------------------------------------------------------------|       (Toca o Riff 2x) 

e|------------------------------------------------------------| 
B|-2/3---2/3--3---2-------------------------------------------| 
G|-4---4-4------4---4-----------------------------------------| 
D|-4-----4----------------------------------------------------| 
A|------------------------------------------------------------| 
E|------------------------------------------------------------| 

Bm 
Raiou 
                                                         G 
Um dia a mais, pra tentar não morrer 
                                   A9 
Mas sempre há alguém que quer te derrubar 
Bm 
Querem foder você, só querem te ver mal 
G                                      A9 
Luxo é ter fé no pais do carnaval! 

G                        A9 
Poeira! Pra atrapalhar. 
G                    Bm 
Poeira! Não! Não! 
G                      A9 
Poeira! Pra sufocar. 
G                                  Bm 
Mas não ha nada que me faça parar! 

G                                      Bm 
Eu sempre acordo pra brigar, 
A9 
E não desisto de sonhar; 
G                                       Bm 
Que existe algo que é só meu! 
(Vou encontrar a saída) 

G                                      Bm 
Eu sempre acordo pra brigar, 
A9 
E sei aonde vou chegar; 
G                                      Bm 
A gente sabe o que viveu! 
(Vou encontrar a saída) 

Bm 
A arte de fazer inimigos 
G                                        A9 
Eu sou muito bom em fazer inimigos 
Bm 
A arte de fazer inimigos 
G                                            A9 
Eu sou muito bom em fazer inimigos 
Bm 
A arte de fazer inimigos 
G                                               A9 
Eu sou muito bom em fazer inimigos 

G                                      Bm 
Eu sempre acordo pra brigar 
A9 
E não desisto de sonhar 
G                                      Bm 
Que existe algo que é só meu 
(Vou encontrar a saída) 

G                                      Bm 
Eu sempre acordo pra brigar 
A9 
E não desisto de sonhar 
G                                      Bm 
Que existe algo que é só meu 
(Vou encontrar a saída) 

G                                      Bm 
Eu sempre acordo pra brigar 
(A arte de fazer inimigos, 
eu sou muito bom em fazer inimigos) 
A9 
Eu sei aonde vou chegar 
(A arte de fazer inimigos, 
eu sou muito bom em fazer inimigos) 
G                                      Bm 
A gente sabe o que viveu 
(A arte de fazer inimigos, 
eu sou muito bom em fazer inimigos) 

G                               Bm 
Eu não aguento mais 
A9 
Não queira me tirar do sério 
G                               Bm 
Eu não aguento mais 
A9 
Não queira me tirar do sério 
	  

No existe una video leccione para esta canción

request
Aumentar uno tonoAumentar uno tono
Aumentar uno semi-tonoAumentar uno semi-tono
Disminuir uno semi-tonoDisminuir uno semi-tono
Disminuir uno tonoDisminuir uno semi-tono
LosAcordes
Buscar
auto avanzar rasgueos aumentar disminuir cambiar color
losacordes exhibir acordes losacordes youTube video losacordes ocultar tabs losacordes ir hacia arriba losacordes