Silverchair

Início > Silverchai... > acordes

Petrol E Chlorine Acordes

Silverchair

Dificultad:Ningún gradoNingún grado

tuner correct add songbook print version text version salvar en e-mail
acordesukuleletablaturabajobateríaarmónicaflautacavacopiano Guitar Pro
acordes

Petrol E Chlorine

	   
 *TUNING* 
Standard (E A D G B E) 
 
*KEY* 
V-down stroke 
^-upstroke 
/-slide up 
x-muted note 
 
NOTES from the transcribers: 
Because of all the strings and other arrangements on here this tablature 
was extremely difficult to transcribe   Although we believe it to be 
more than fairly accurate should you find any error whatsoever please mail 
either of us    
 
Also, it seems during the interlude parts that Daniel just plays a normal 
C chord but for the sake of melody we transcribed the "lead" parts  
 
Well   here goes! 
 
 
     C          C7M    Csus2       C 
e|---0--0-0--0--0-0-0--0-0-0--0-0--0--0-0--0-0-0-0-0-| 
B|---1--1-1--1--0-0-0--3-3-3--3-3--1--1-1--1-1-1-1-1-| 
G|---0--0-0--0--0-0-0--0-0-0--0-0--0--0-0--0-0-0-0-0-| 
D|---2--2-2--2--2-2-2--2-2-2--2-2--2--2-2--2-2-2-2-2-| 
A|-3-3--3-3--3--3-3-3--3-3-3--3-3--3--3-3--3-3-3-3-3-| 
E|---------------------------------------------------| 
   v v  v ^  ^  ^ ^ ^  v v ^  v ^  v  v ^  v ^ v ^ v 
     Sinking through dark holes it's never gonna end  
 
   C            C7M    Csus2       C                
e|-0-0--0-0--0--0-0-0--0-0-0--0-0--0--0-0--0-0-0-0-0-| 
B|-1-1--1-1--1--0-0-0--3-3-3--3-3--1--1-1--1-1-1-1-1-| 
G|-0-0--0-0--0--0-0-0--0-0-0--0-0--0--0-0--0-0-0-0-0-| 
D|-2-2--2-2--2--2-2-2--2-2-2--2-2--2--2-2--2-2-2-2-2-| 
A|-3-3--3-3--3--3-3-3--3-3-3--3-3--3--3-3--3-3-3-3-3-| 
E|---------------------------------------------------| 
   v v  v ^  ^  ^ ^ ^  v v ^  v ^  v  v ^  v ^ v ^ v 
    Open gash in my ribcage it's never gonna mend  
 
   C#7                            C    (C)                             (C#  ) 
e|-4------------------------------0-| |-6-8-6-5-6-5-3-5-3-1-3-1-0-1-0-----| 
B|-0------------------------------1-| |-------------------------------1-2-| 
G|-4------------------------------0-| |-----------------------------------| 
D|-3------------------------------2-| |-----------------------------------| 
A|-4------------------------------3-| |-----------------------------------| 
E|----------------------------------| |-----------------------------------| 
    Take another picture off the wall  **cithar arg  for guitar** 
 
   C#7                     C            C7M    Csus2       C 
e|-4-----------------------0-0--0-0--0--0-0-0--0-0-0--0-0--0--0-0--0-0-0-0-0-| 
B|-0-----------------------1-1--1-1--1--0-0-0--3-3-3--3-3--1--1-1--1-1-1-1-1-| 
G|-4-----------------------0-0--0-0--0--0-0-0--0-0-0--0-0--0--0-0--0-0-0-0-0-| 
D|-3-----------------------2-2--2-2--2--2-2-2--2-2-2--2-2--2--2-2--2-2-2-2-2-| 
A|-4-----------------------3-3--3-3--3--3-3-3--3-3-3--3-3--3--3-3--3-3-3-3-3-| 
E|---------------------------------------------------------------------------| 
 
  Sinking deeper every time I fall 
 
   C            C7M    Csus2       C                     x2 
e|-0-0--0-0--0--0-0-0--0-0-0--0-0--0--0-0--0-0-0-0-0-| 
B|-1-1--1-1--1--0-0-0--3-3-3--3-3--1--1-1--1-1-1-1-1-| 
G|-0-0--0-0--0--0-0-0--0-0-0--0-0--0--0-0--0-0-0-0-0-| 
D|-2-2--2-2--2--2-2-2--2-2-2--2-2--2--2-2--2-2-2-2-2-| 
A|-3-3--3-3--3--3-3-3--3-3-3--3-3--3--3-3--3-3-3-3-3-| 
E|---------------------------------------------------| 
   v v  v ^  ^  ^ ^ ^  v v ^  v ^  v  v ^  v ^ v ^ v 
    Each day ends quicker and my mind gets slower too  
    As my life just fades away I wouldn't have a clue  
 
   C#7                            C    (C)                             (C#  ) 
e|-4------------------------------0-| |-6-8-6-5-6-5-3-5-3-1-3-1-0-1-0-----| 
B|-0------------------------------1-| |-------------------------------1-2-| 
G|-4------------------------------0-| |-----------------------------------| 
D|-3------------------------------2-| |-----------------------------------| 
A|-4------------------------------3-| |-----------------------------------| 
E|----------------------------------| |-----------------------------------| 
    Take another draw out from the shell  **cithar arg  for guitar** 
 
   C#sus2(no 3rd)              C D D# F  G  G# A# C 
e|-4----------------------------------------------------------| 
B|-2----------------------------------------------------------| 
G|-x---------------------------5-7-8--10-12-13-15-17-17-17-17-| 
D|-3---------------------------x-x-x--x--x--x--x--x--x--x--x--| 
A|-4---------------------------3-5-6--8--10-11-13-15-15-15-15-| 
E|------------------------------------------------------------| 
   I'm too weak to do it by myself 
 
  C        Bb5              A5        G#   F 
e|-0-0-0-0-----------------------------4-4--1-1-1-| 
B|-1-1-1-1-----------------------------4-4--1-1-1-| 
G|-0-0-0-0--3--3-3--3-3-3-3--2-2--2-2--5-5--2-2-2-|  (play 2x) 
D|-2-2-2-2--3--3-3--3-3-3-3--2-2--2-2--6-6--3-3-3-| 
A|-3-3-3-3--1--1-1--1-1-1-1--0-0--0-0--6-6--3-3-3-| 
E|-------------------------------------4-4--1-1-1-| 
   Though you had the world at your you could see that I was blind 
   Had the perfect job called life you didn't like it you resigned    
 
e|-3-5-3-6-5-3-5-3---3-5-3-6-5-8-8-8-| 
B|-----------------------------------| 
G|-----------------5-----------------|  (play 2x) 
D|-----------------------------------| 
A|-----------------------------------| 
E|-----------------------------------| 
  **cithar arg  for guitar** 
 
  C            C7M    Csus2       C                
e|-0-0--0-0--0--0-0-0--0-0-0--0-0--0-| 
B|-1-1--1-1--1--0-0-0--3-3-3--3-3--1-| 
G|-0-0--0-0--0--0-0-0--0-0-0--0-0--0-| 
D|-2-2--2-2--2--2-2-2--2-2-2--2-2--2-| 
A|-3-3--3-3--3--3-3-3--3-3-3--3-3--3-| 
E|-----------------------------------| 
   v v  v ^  ^  ^ ^ ^  v v ^  v ^  v  
  Brain's a square of grass growing on petrol and chlorine    
 
Led Zeppelin-sounding interlude: 
   C  G  F# F  C  D  D# G# A# D 
e|--------------------------------------| 
B|--------------------------------------| 
G|-----12-11-10----------13-15----------|   (play 4x) 
D|--10-x--------10-12-13-x--x--13-13-13-| 
A|--x- 10-9--8--x--x--x--11-13-x--x--x--| 
E|--8-----------8--10-11-------11-11-11-| 
  
  G#      G      C 
e|--4-4-----3---3--0--0-0-0-----------------------------4-4--1-1-1-| 
B|--4-4-----3---3--1--1-1-1-----------------------------4-4--1-1-1-| 
G|--5-5-----4---4--0--0-0-0--3--3-3--3-3-3-3--2-2--2-2--5-5--2-2-2-| 
D|--6-6-----5---5--2--2-2-2--3--3-3--3-3-3-3--2-2--2-2--6-6--3-3-3-| 
A|--6-6-----5---5--3--3-3-3--1--1-1--1-1-1-1--0-0--0-0--6-6--3-3-3-| 
E|--4-4-----3---3---------------------------------------4-4--1-1-1-| 
   With the petrol and clorine   you could see that I was blind    
 
  C        Bb5              A5        G#   F 
e|-0-0-0-0-----------------------------4-4--1-1-1-| 
B|-1-1-1-1-----------------------------4-4--1-1-1-| 
G|-0-0-0-0--3--3-3--3-3-3-3--2-2--2-2--5-5--2-2-2-| 
D|-2-2-2-2--3--3-3--3-3-3-3--2-2--2-2--6-6--3-3-3-| 
A|-3-3-3-3--1--1-1--1-1-1-1--0-0--0-0--6-6--3-3-3-| 
E|-------------------------------------4-4--1-1-1-| 
  Had the perfect job called life you didn't like it you resigned    
 
   C           G#    G 
e|-0--0--0-0-0-4--4--3--3-| 
B|-1--1--1-1-1-4--4--3--3-| 
G|-0--0--0-0-0-5--5--4--4-|  (play 4x) 
D|-2--2--2-2-2-6--6--5--5-| 
A|-3--3--3-3-3-6--6--5--5-| 
E|-------------4--4--3--3-| 
  With the petrol and chlorine 
  You know just what I mean   
 
Gtr 2 (every second time) 
B|--/8-8-6-6-5--| 
 
Outro  
e|-------------| 
B|-3-4-3-6-4---| 
G|-----------5-|  (play 4x) 
D|-------------| 
A|-------------| 
E|-------------| 
  **cithar arg  for guitar** 

	  

No existe una video leccione para esta canción

request
Aumentar uno tonoAumentar uno tono
Aumentar uno semi-tonoAumentar uno semi-tono
Disminuir uno semi-tonoDisminuir uno semi-tono
Disminuir uno tonoDisminuir uno semi-tono
LosAcordes
Buscar
auto avanzar rasgueos aumentar disminuir cambiar color esconder acordes simplificar gráficos columnas
losacordes exhibir acordes losacordes youTube video losacordes ocultar tabs losacordes ir hacia arriba losacordes