Glass Animals

Início > Glass Anim... > acordes

Heat Waves Acordes

Glass Animals

Dificultad:IntermedioIntermedio

Caioo222

tuner correct add songbook print version text version salvar en e-mail
acordesukuleletablaturabajobateríaarmónicaflautacavacopiano Guitar Pro
acordes

Heat Waves

Tono:  C#m Más
Heat Waves Key G#mG#m
Heat Waves Key AmAm
Heat Waves Key A#mA#m
Heat Waves Key BmBm(Disminuir uno tono)
Heat Waves Key CmCm(Disminuir uno semi-tono)
Heat Waves Key C#mC#m(tono original)
Heat Waves Key DmDm(Aumentar uno semi-tono)
Heat Waves Key D#mD#m(Aumentar uno tono)
Heat Waves Key EmEm
Heat Waves Key FmFm
Heat Waves Key F#mF#m
Heat Waves Key GmGm
	  

Intro 
    C#m7    C#m             B                     G#m                    F# 
e|--------12-----12------|-------11-----11-----|----------------------|---------------------| 
B|-----12-----14----14---|----12-----12----12--|--------12-----12-----|-------11-----11-----| 
G|-----------------------|---------------------|-----13-----13----13--|----11-----11----11--| x2 
D|--11------11----11-----|--9------9----9------|----------------------|---------------------| 
A|-----------------------|---------------------|--11------11----11----|--9------9------9----| 
E|-----------------------|---------------------|----------------------|---------------------| 
  
    C#m7    C#m             B                     G#m                    F# 
e|--------12-----12------|-------11-----11-----|----------------------|---------------------| 
B|-----12-----14----14---|----12-----12----12--|--------12-----12-----|-------11------------| 
G|-----------------------|---------------------|-----13-----13----13--|----11---------------| 
D|--11------11----11-----|--9------9----9------|----------------------|---------------------| 
A|-----------------------|---------------------|--11------11----11----|--9------------------| 
E|-----------------------|---------------------|----------------------|---------------------| 
  
C#m    B 
  
G#m                F# 
 (Last night all I think about is you 
C#m                 B 
  Don't stop, baby, you can walk through 
G#m                F# 
  Don't wanna think about 
C#m                 B               G#m       F# 
  You know that I'm never gonna) 
  
C#m            B 
  Road shimmer wigglin' the vision 
G#m                     F# 
  Heat, heat waves, I swimmin' in a mirror 
E              B 
  Road shimmer wigglin' the vision 
C#m                     F# 
  Heat, heat waves, I swimmin' in a 
  
refrão
C#m B Sometimes all I think about is you G#m F# Late nights in the middle of June E B Heat waves been fakin' me out C#m F# Can make you happier now C#m B Sometimes all I think about is you G#m F# Late nights in the middle of June E B Heat waves been fakin' me out C#m F# Can make you happier now
C#m B Usually I put somethin' on TV G#m F# So we never think about you and me E B But today I see our reflections clearly C#m F# In Hollywood, layin' on the screen E B You just need a better life than this G#m F# You need somethin' I can never give E B Fake water all across the road C#m F# It's gone now, the night has come, but
refrão
C#m B Sometimes all I think about is you G#m F# Late nights in the middle of June E B Heat waves been fakin' me out C#m F# Can make you happier now
C#m B You can't fight it, you can't breathe G#m F# You say somethin' so lovin', but E B Now I gotta let you go C#m F# You'll be better off in someone new C#m B I don't wanna be alone G#m F# You know it hurts me too E* F#* You look so broken when you cry G#m* F#* One more and then I say goodbye
refrão
C#m B Sometimes all I think about is you G#m F# Late nights in the middle of June E B Heat waves been fakin' me out C#m F# Can make you happier now C#m B Sometimes all I think about is you G#m F# Late nights in the middle of June E B Heat waves been fakin' me out C#m F# Can make you happier now
E* E* I just wanna know what you're dreamin' of F# F#* When you sleep and smile so comfortable G#m* G#m* I just wish that I could give you that B* B* B* B* That look that's perfectly un-sad E* F#* Sometimes all I think about is you G#m* D#* Late nights in the middle of June E* F#* Heat waves been fakin' me out G#m* B* Heat waves been fakin' me out
refrão
C#m B Sometimes all I think about is you G#m F# Late nights in the middle of June E B Heat waves been fakin' me out C#m F# Can make you happier now C#m B Sometimes all I think about is you G#m F# Late nights in the middle of June E B Heat waves been fakin' me out C#m F# Can make you happier now
Outro C#m B Road shimmer wigglin' the vision G#m F# Heat, heat waves, I swimmin' in a mirror E B Road shimmer wigglin' the vision C#m F#* Heat, heat waves, I swimmin' in a mirror C#m B G#m F# E B C#m F#* C#m* B* G#m F#* E* G#m* C#m* F#*

there is a video lesson for this song
view full video
Aumentar uno tonoAumentar uno tono
Aumentar uno semi-tonoAumentar uno semi-tono
Disminuir uno semi-tonoDisminuir uno semi-tono
Disminuir uno tonoDisminuir uno semi-tono
LosAcordes
Buscar
auto avanzar rasgueos aumentar disminuir cambiar color esconder acordes simplificar gráficos columnas
losacordes exhibir acordes losacordes youTube video losacordes ocultar tabs losacordes ir hacia arriba losacordes