Gino e Geno

Início > Gino e Gen... > acordes

As Águas Do São Francisco (ver. 2) Acordes

Gino e Geno

Dificultad:FácilFácil

hugo_rodrigues

tuner correct add songbook print version text version salvar en e-mail
acordesukuleletablaturabajobateríaarmónicaflautacavacopiano Guitar Pro
acordes

As Águas Do São Francisco (ver. 2)

(Geno / Gino / Otávio Pimentel)

	  Intro  
E  A  E  B7  E  E7 
A  E  B7  E  B7 

verse 1 de 5 
E|------------------------------------------| 
B|------------5-7-5-4------------5-5p4------| 
G|-----------6--------6-4------4-------6----| 
D|---4-6-7--7----------------6--------------| 
A|-7-----------------------7----------------| 
E|------------------------------------------| 

verse 2 de 5 
E|------------------------------------------| 
B|------------------------------------------| 
G|-6p4--------------------------------------| 
D|-----7p6---6-7p6---6--7p6-----------------| 
A|---------9-------9--------9p7-6-----0-----| 
E|--------------------------------9p7---4---| 

verse 3 de 5 
E|------------------------------------------| 
B|---------------------5-7-5-4h5p4----------| 
G|--------------------6------------6-4------| 
D|--------------6-7--5----------------------| 
A|---7-6-5--7h9-----------------------------| 
E|-7----------------------------------------| 

verse 4 de 5 
E|-4h5-6-7--4-7-4-7--5-4--------------------| 
B|-----------------------7-5-4-5-4---4------| 
G|---------------------------------6---6-4--| 
D|------------------------------------------| 
A|------------------------------------------| 
E|------------------------------------------| 

Verse 5 de 5 
E|------------------------------------------| 
B|------------------------------------------| 
G|------------------------------------------| 
D|-7-6-7-6-4--------------------------------| 
A|-----------7------------------------------| 
E|--------------5-5-5-5-5-------------------| 


   E                               B7          E    E7 
As águas do São Francisco estavam por cima da ponte 
A                                    E7          A 
  Este é o grande motivo que eu não pude atravessar 
B7                                               E 
   Mas isto eu achei foi bom, fui obrigado a voltar 


     A                                     B7 
Pra casa do meu amor e passei a noite por lá 
    E  B7               E 
Fiquei    a noite inteirinha 
                          B7             E     E7 
Ao lado da moreninha esperando as águas baixar 

refrão
A E Enquanto as águas baixava, eu tomava café quente B7 E Muitos beijos e abraços, aumentava o amor da gente A E E eu pedindo ao São Pedro, que aumentasse a enchente B7 E São Pedro eu estou gostando B7 E As águas pode ir aumentando e meu amor fica contente
Solo A E B7 E E7 A E B7 E E7
refrão
A E Enquanto as águas baixava, eu tomava café quente B7 E Muitos beijos e abraços, aumentava o amor da gente A E E eu pedindo ao São Pedro, que aumentasse a enchente B7 E São Pedro eu estou gostando B7 E As águas pode ir aumentando e meu amor fica contente
E B7 E E7 As águas do São Francisco estavam por cima da ponte A E7 A Este é o grande motivo que eu não pude atravessar B7 E Mas isto eu achei foi bom, fui obrigado a voltar A B7 Pra casa do meu amor e passei a noite por lá E B7 E Fiquei a noite inteirinha B7 E E7 Ao lado da moreninha esperando as águas baixar Outro A E B7 E ************************************ | p Pull-off | h Hammer-on ************************************

No existe una video leccione para esta canción

request
Aumentar uno tonoAumentar uno tono
Aumentar uno semi-tonoAumentar uno semi-tono
Disminuir uno semi-tonoDisminuir uno semi-tono
Disminuir uno tonoDisminuir uno semi-tono
LosAcordes
Buscar
auto avanzar rasgueos aumentar disminuir cambiar color esconder acordes simplificar gráficos columnas
losacordes exhibir acordes losacordes youTube video losacordes ocultar tabs losacordes ir hacia arriba losacordes