Avenged Sevenfold

Início > Avenged Se... > acordes

Buried Alive Acordes

Avenged Sevenfold

Dificultad:ExpertoExperto

mar-gobbo

tuner correct add songbook print version text version salvar en e-mail
acordesukuleletablaturabajobateríaarmónicaflautacavacopiano Guitar Pro
acordes

Buried Alive

	  (intro)  

E|---------8-------10p8------8-------------7------------------------------|  
B|----/10-----10---------10-----------/8---8--10--8/10---------5-----6p5--|  
G|----------------------------------------------------------/7---7--------|  
D|------------------------------------------------------------------------|  
A|-----0-------------------------------7---------------------5------------|  
E|----------------------------------8-------------------------------------|  

E|---------------------------------8-----10p8-----8---------7-------------|  
B|---5----------5--------------/10---10--------10------/8---8-10--8/10----|  
G|-7---5-------5--4-7\5-4h5p4---------------------------------------------|  
D|------------------------------------------------------------------------|  
A|------------------------------0-----------------------7-----------------|  
E|---------8-7-5--------------------------------------8-------------------|  

E|---------------------------------------------|  
B|----5----6p5---------8-10-9h10p9p7h9h10------|  
G|-/7---7--------7-9-10------------------------|  
D|---------------------------------------------|  
A|---------------5-7-8-------------------------|  
E|---------------------------------------------|  

E|----------------------------------------------------------------------------|  
B|---/10-8-10-----------------/10-8-10------------------/10-8-10--------------|  
G|-----------/7--5-7-5--------------------/7-5-5/7-5------------/7-5-7-5-----|  
D|-----------------------7-5----------------------------------------------7-5-|  
A|-----0-------------------------------------------------0--------------------|  
E|-----------7------------------8----------5----------------------------------|  

E|-----------------------|  
B|--7-8-7--5---5---------|  
G|----------5---5--------|  (entre os dois : = 2x vezes)  
D|-----------------------|  
A|--5------3--3----------|  
E|-----------------------|  

E|----------------------------5(harmonic)-------------------------------------|  
B|------------5---5----------------------------------------5-----5------------|  
G|--/5----4------------2--/5--------------------/5----4---------------2--/5---|  
D|----------------------------------------------------------------------------|  
A|----------------------------------------------------------------------------|  
E|---5----3-------1------------------------------5----3----------1------------|  

E|------5(harmonic)--------------------------------------------------------|  
B|-------------------------------------------------------------------------|  
G|-------------------------------------------------------------------------|  
D|---------------------------3(harmonic)-----------------------------------|  
A|-------------------------------------------------------------------------|  
E|-------------------------------------------------------------------------|  

E|-------------------------------------------------------------------------------------10-----|  
B|-/10--10-10--12-13\8--10-10-10--5--9-------/10--10-10--12-13-8--10-10--12-13-12-12-13--13---|  
G|--------------------------------------------------------------------------------------------|  
D|--------------------------------------------------------------------------------------------|  
A|--------------------------------------------------------------------------------------------|  
E|--------------------------------------------------------------------------------------------|  

E|-12-10-12----12-10-12--17-15-15-12\/12--13p12-------12-10-12----12-10-12--|  
B|----------13----------------------------------12--13---------13-----------|  
G|--------------------------------------------------------------------------|  
D|--------------------------------------------------------------------------|  
A|--------------------------------------------------------------------------|  
E|--------------------------------------------------------------------------|  

E|--13/15p13-10/12-10--10---------------------------------------------------|  
B|------------------------13-12-10-9-13-------------------------------------|  
G|--------------------------------------------------------------------------|  
D|--------------------------------------------------------------------------|  
A|--------------------------------------------------------------------------|  
E|--------------------------------------------------------------------------|  

( Am  C  F7m  G#º )  

( Dm  C  G/B  Gb )  
   
( Dm  C  Gb  G#º )  

	  

No existe una video leccione para esta canción

request
Aumentar uno tonoAumentar uno tono
Aumentar uno semi-tonoAumentar uno semi-tono
Disminuir uno semi-tonoDisminuir uno semi-tono
Disminuir uno tonoDisminuir uno semi-tono
LosAcordes
Buscar
auto avanzar rasgueos aumentar disminuir cambiar color esconder acordes simplificar gráficos columnas
losacordes exhibir acordes losacordes youTube video losacordes ocultar tabs losacordes ir hacia arriba losacordes